Rammstein - Feuer Frei Chords & Tabs

 

Feuer Frei Chords & Tabs

Rammstein Chords & Tabs

Version: 3 Type: Tab 4 ratings
1 star 2 stars 3 stars 4 stars 5 stars
comments

Feuer Frei Tab

Tab For Rammstein - Feuer Frei (From The 'XXX' Movie)
by Phillip Kreth

This is the complete song minus the cool sounding synth stuff 


Intro Chord:

D:----11---(pitch goes down)|
A:----11--------------------|
D:----11--------------------|

The softer part:

intro only

e:-----------------------------------|
B:-----------------------------------|
G:---------(palm muted)-------------.| x8
D:----------------------------------.|
A:-----------------------------------|
D:----5-6-5-6-5-6-5-6-9-9-9----------|

The louder part:
[ Tab from: http://www.guitartabs.cc/tabs/r/rammstein/feuer_frei_tab_ver_3.html ]
'bang bang and feuer frei'

e:-----------------------------------|
B:-----------------------------------|
G:----------------------------------.|
D:----5-6-5-6-5-6-5-6-9-9-9---------.|
A:----5-6-5-6-5-6-5-6-9-9-9----------|
D:----5-6-5-6-5-6-5-6-9-9-9----------|


The part after they yell bang bang twice goes like this:

e:----------------------------------|
B:----------------------------------|
G:----------------------------------|
D:----9---6---5--------9---6---5----|
A:----9---6---5--------9---6---5----|
D:----9---6---5--------9---6---5----|
Comments