Rammstein - Feuer Frei Chords & Tabs

 

Feuer Frei Chords & Tabs

Rammstein Chords & Tabs

Version: 3 Type: Bass Tab 0 ratings
1 star 2 stars 3 stars 4 stars 5 stars
comments

Feuer Frei Bass Tab

   
Band: Rammstein
song: Feuer Frei
Album: Mutter
by: Zack Anderson


Intro
G|-----------|
D|-----------|
A|---0~~~----|
E|-----------|

Main Riff 1
G|---------------------------|
D|---------------------------|
A|-0-1-0-1-0-1-0-1-1-1-1-3---|
E|---------------------------|
[ Tab from: http://www.guitartabs.cc/tabs/r/rammstein/feuer_frei_btab_ver_3.html ]
Second Riff Durin And After Chorus
G|-------------------------|
D|-------------------------|
A|-0-1-0-1-0-1-0-1-1-1-1-3-|  x3
E|-------------------------|
continued...
G|---------------------------------|
D|---------------------------------|
A|-6-6-6-6-6-6-6-6-4-4-4-4-1-1-1-1-|
E|---------------------------------|

Outro
G|-----------------------------------------------------------------|
D|-----------------------------------------------------------------|
A|-6-6-6-6-6-6-6-6-4-4-4-4-1-1-1-1/6-6-6-6-6-6-6-6-4-4-4-4-1-1-1-1-|
E|-----------------------------------------------------------------|

Enjoy!!! please rate
Comments