Rammstein - Engel Chords & Tabs

 

Engel Chords & Tabs

Rammstein Chords & Tabs

Version: 3 Type: Tab 0 ratings
1 star 2 stars 3 stars 4 stars 5 stars
comments

Engel Tab

           Keyboard intro
E-------|--10-------------|-----------------------|---------10--|-------|
B-------|------10-----13--|-----10-----12---------|--10---------|-------|
G---4:--|-----------------|----------------12-----|-------------|-------|
D---4:--|-----------------|-----------------------|-------------|-------|
A-------|-----------------|-----------------------|-------------|-------|
D-------|-----------------|-----------------------|-------------|-------|


                                              Main Riff
E--------------|------------------------|-------------------------------|
B---10-----13--|-----10-----12----------|-------------------------------|
G--------------|----------------12------|-------------------------------|
D--------------|--------------------12--|-----5--\--7--------8--\--7----|
A--------------|------------------------|-----3--\--5--------6--\--5----|
D--------------|------------------------|--------------0--0-------------|

E------------------------------------------|----------------------------|
B------------------------------------------|----------------------------|
G------------------------------------------|----------------------------|
D---------5--\--7-----5--\--7-----8--\--7--|----------------------------|
A---------3--\--5-----3--\--5-----6--\--5--|----------------------------|
D---0--0-----------0-----------0-----------|----------------------------|


    Organ Chords Played During Chorus
E---10-----------------|--8---------------------|-----10----------------|
B---10-----------------|--10--------------------|-----12----------------|
G---11-----------------|--9---------------------|-----10----------------|
D----------------------|------------------------|-----12----------------|
A----------------------|------------------------|-----------------------|
D----------------------|------------------------|-----------------------|


                                              Keyboard Interlude
E---------|--10-----------------------|--||---22-----24-----------------|
B---------|--10-----------------------|--||-----------------------------|
G---------|--10-----------------------|--||*----------------------------|
D---------|--12-----------------------|--||*--0-------------------------|
A---------|---------------------------|--||-----------------------------|
D---------|---------------------------|--||----------14-----15----------|

E---22------------24-----22-----21-----24-----------24------------24----|
B-----------------------------------------------------------------------|
G---------------------------------------------0-------------------------|
D---0--------------------0----------------------------------------------|
A-----------------------------------------------------------------------|
D----------15-----14------------11-----14-----------14-----15-----14----|

[ Tab from: http://www.guitartabs.cc/tabs/r/rammstein/engel_tab_ver_3.html ]
                                       4x     Keyboard Outro
E-------------------24-----24-----21---||-----10------------|-----------|
B--------------------------------------||---------------10--|--13-------|
G-------------------------------------*||-------------------|-----------|
D----------0--------------------------*||-------------------|-----------|
A------12-----3------------------------||-------------------|-----------|
D-------------------14-----14-----11---||-------------------|-----------|

E----------|----------------|------------|--10---------------|----------|
B---10-----|--12-----10-----|--12--------|------------10-----|----------|
G----------|----------------|------------|-------------------|----------|
D----------|----------------|------------|-------------------|----------|
A----------|----------------|------------|-------------------|----------|
D----------|----------------|------------|-------------------|----------|

E--------------|---------------|------------|-----10--------|-----------|
B---13-----10--|-----12-----8--|------------|---------------|-----------|
G--------------|---------------|-----12-----|---------------|-----------|
D--------------|---------------|------------|---------------|-----------|
A--------------|---------------|------------|---------------|-----------|
D--------------|---------------|------------|---------------|-----------|

E---12-----|--------12--------|--------10-------------------|--||-------|
B----------|------------------|---------------13-----10-----|--||-------|
G----------|------------------|-----------------------------|--||*------|
D----------|------------------|-----------------------------|--||*------|
A----------|------------------|-----------------------------|--||-------|
D----------|------------------|-----------------------------|--||-------|


                       2x
E---10------------10---||----------------------|------------|-----------|
B----------13----------||-----10---------------|------------|-----------|
G---------------------*||---------------12-----|-----13-----|-----------|
D---------------------*||----------------------|------------|-----12----|
A----------------------||----------------------|------------|-----------|
D----------------------||----------------------|------------|-----------|

E----------------|-------------------|-------------------|--------------|
B----------------|-------------------|-------------------|--------------|
G----------------|-------------------|-----16------------|--------------|
D----------------|-----10------------|------------17-----|--------------|
A------12--------|------------12-----|-------------------|-----17-------|
D----------------|-------------------|-------------------|--------------|


This song is pretty straight forward. I have included the keyboard
parts. The interlude must be played by two people.
Comments