Rammstein - Engel Chords & Tabs

 

Engel Chords & Tabs

Rammstein Chords & Tabs

Version: 2 Type: Tab 0 ratings
1 star 2 stars 3 stars 4 stars 5 stars
comments

Engel Tab

This Riff is played the whole song:             
                                      x3
E||-----------------------------------|
B||*---------------------------------*|
G||-----------------------------------|
D||-----------------------------------| 
A||*-3h5-----6p5-----3h5---3h5---6p5-*|
D||------0-0-----0-0-----0-----0------|
        pm..    pm..    pm    pm

                                      x1
E||------------------------------------|
B||------------------------------------|
G||------------------------------------|
D||------------------------------------|
A||--3h5-----6p5-----3h5---3h5-3-3-3---|
D||------0-0-----0-0-----0-----3-3-3---|
        pm..    pm..    pm    pm....
[ Tab from: http://www.guitartabs.cc/tabs/r/rammstein/engel_tab_ver_2.html ]
Comments