Rammstein - Du Riechst So Gut Chords & Tabs

 

Du Riechst So Gut Chords & Tabs

Rammstein Chords & Tabs

Version: 1 Type: Bass Tab 0 ratings
1 star 2 stars 3 stars 4 stars 5 stars
comments

Du Riechst So Gut Bass Tab

   
Rammstein - Du Richst So Gut
Submitted By: Meelis Saard
EMail: m_saard@hotmail.com

symbols
' = mute/brake

BASS TAB
tuning  -DADG-

before the bass steps in there's a synthic bass on a background with very difficult
rhytm to got right but here's a rhytm that can be played for that with a real bass

|------------------------------------------------------
|------------------------------------------------------
|------------------------------------------------------
|--5-5--5-5--5-5--5--5-5--5--5-5--5-5--5-5--5--5-5--5\- repeat

intro and verse u know the rhytm
----------|------------------------------------
----------|------------------------------------
----------|------------------------------------
--0-1-0-1-|-0-1-1-0-1--0-0-1-0-1-(0)-'-0-1-0-1-

a little brake

---------------------|------------------------------------
---------------------|------------------------------------
---------------------|------------------------------------
--0-0-1-1--0-1-1-0-1-|-0-0-1-0-1--0-1-1-0-1-(0)-'-0-1-0-1-

only synthic bass, can be played with a real bass too for example u can play almost same rhytm wiht
the same notes an octave higher or like this..

way one: an octave higher
------------------|---------------------------------
------------------|---------------------------------
------------------|---------------------------------
--12-13-13--12-13-|-12-13-13-12-13--12-12-13-12-13-- x 7 times

variation
-----------------------------------------------------------------------------
-----------------------------------------------------------------------------
-----------------------------------------------------------------------------
--12-13-13-12-13--12-12-13-12-13--12-13-13-12-13--10-10-12-7-8--5-7-7-3-5-7\-

way two: for live performing, sounds great
(NOTE!: I try to explain how to play this. Drummer hits a bass drum
[with leg, I dont know what it's called at english] so between those bass drum beats
the bass hits the low D)
----------------------------------------------------
----------------------------------------------------
----------------------------------------------------
--0-'-0-'-0-'-0-'-0-'-0-'-0-'-0-'-0-'-0-'-0-'-0-'-0-

chorus
----------------------------------
----------------------------------
----------------------------------
--5-5-5-5-8-8-8-8-0-0-0-0-0-0-0-0-

--------------------------------------
--------------------------------------
--------------------------------------
--10-10-10-10-8-8-8-8-7-7-7-7-7-7-7-7-

verse variation
--------------------------------------------------------------------
--------------------------------------------------------------------
--------------------------------------------------------------------
--0-1-0-1--0-0-1-0-1--0-1-1-0-1--0-0-1-0-1--0-1/5\3/7\5/8\7/10\8/12-
===========

[ Tab from: http://www.guitartabs.cc/tabs/r/rammstein/du_riechst_so_gut_btab.html ]
Du Reichst so Gout - Rammstein
Jon Craven (i_apathy@hotmail.com)
 
(enters @ 0:08)

Riff 1: (x3)(I can't quite nail the timing so I wrote it in 12/8, but it's really 4/4)
G:------------------------|-----------------------|
D:------------------------|-----------------------|
A:------------------------|-----------------------|
D:-R--0-1-0-1-0-1-1-0-1-0-|-R-0-1-0-1-0-1-1-0-1-R-|

Riff 2:
G:------------------------|------------------------|
D:------------------------|------------------------|
A:------------------------|------------------------|
D:-R--0-1-0-1-0-1-1-0-1-0-|-R--0-1-0-1-0-1-1-0-1-0-|

Pause for 1 measure

Riff 3:
G:-------------------------|------------------------|
D:-------------------------|------------------------|
A:-------------------------|------------------------|
D:-0-0-0-1-0-1-0-1-1-0-1-0-|-R--0-1-0-1-0-1-1-0-1-0-|

Riff 1 (x2)
Riff 2

Pause for 9 measures
Riff 1 (x3)
Riff 2
Pause for 11 measures

Riff 4:
G:-----------------|---------------|-----------------|---------------|-----------------|
D:-----------------|---------------|-----------------|---------------|-----------------|
A:-----------------|---------------|-----------------|---------------|-----------------|
D:-0-0-0-0-3-3-3-3-|-0-0-0-0-0-0-R-|-0-0-0-0-3-3-3-3-|-0-0-0-0-0-0-R-|-0-0-0-0-3-3-3-3-|

G:-----------------|-----------------|-----------------|-----------------|-----------------|
D:-----------------|-5-5-5-5---------|-7-7-7-7-7-7-7-7-|-----------------|-----------------|
A:-----------------|---------8-8-8-8-|-----------------|-----------------|-----------------|
D:-0-0-0-0-0-0-0-0-|-----------------|-----------------|-5-5-5-5-7-7-7-7-|-0-0-0-0-0-0-0-0-|

G:-----------------|-----------------|-----------------|-----------------|-----------------|
D:-----------------|-----------------|-----------------|-----------------|-----------------|
A:-----------------|-5-5-5-5-5-5-5-5-|-----------------|-----------------|-5-5-5-5-3-3-3-3-|
D:-5-5-5-5-7-7-7-7-|-----------------|-5-5-5-5-7-7-7-7-|-0-0-0-0-0-0-0-0-|-----------------|

G:-----------------|
D:-----------------|
A:-----------------|
E:-7-7-7-7-7-7-7-7-|

Pause for 2 measures
Riff 1 (x3)
Riff 2
Pause for 11 measures
Riff 2
Pause for 8 measures
Riff 2

End:
G:-----------------|-----------------|-----------------|-----------------|-----------------|
D:-----------------|-----------------|-----------------|-----------------|-----------------|
A:-----------------|-----------------|-----------------|-5-5-5-5-5-5-5-5-|-----------------|
D:-5-5-5-5-7-7-7-7-|-0-0-0-0-0-0-0-0-|-5-5-5-5-7-7-7-7-|-----------------|-5-5-5-5-7-7-7-7-|

G:-----------------|-----------------|-----------------|------------|
D:-----------------|-----------------|-----------------|------------|
A:-----------------|-5-5-5-5-3-3-3-3-|-----------------|------------|
D:-0-0-0-0-0-0-0-0-|-----------------|-7-7-7-7-7-7-7-7-|-5--R--R--R-|

Break till end
Comments