Rammstein - Du Hast Chords & Tabs

 

Du Hast Chords & Tabs

Rammstein Chords & Tabs

Version: 1 Type: Tab 0 ratings
1 star 2 stars 3 stars 4 stars 5 stars
comments

Du Hast Tab

Song: Du Hast
Band: Rammstein
Tabbed by: XsmokeX
This is my first tab I've ever submitted and I think it's pretty good.
But it is a very easy song to tab.  That's why I don't understand why
so many people can be so wrong on this song.  Don't forget to add requests
for Rammstein.  If you like Disturbed, checkout Shout 2000 (Version 2).

Tab Key:
	P.M.= Palm Mute
	/= Slide Up
	\= Slide Down

Standard Tuning
Tempo= 125


Riff 1
        P.M.-----------|         P.M.------------------| 3x
||---------------------------|----------------------------||
||---------------------------|----------------------------||
||*--------------------------|---------------------------*||
||*--------------------------|---------------------------*||
||-7\\5-------------------7\\|\5--------------------------||
||-5\\3--0--0--0-0-0--0-0-5\\|\3--0--0--0--0-0-0--0-0-0-0-||

        P.M.---------------|
|---------------------------|
|---------------------------|
|---------------------------|
|---------------------------|
|-5//7----------------------|
|-3//5--5--5--5-5-5--5-5-5-5|



Chorus Riff
        P.M.-----------|         P.M.------------------|
|---------------------------|---------------------------|
|---------------------------|---------------------------|
|---------------------------|---------------------------|
|---------------------------|---------------------------|
|-7\\5-------------------7\\|\5-------------------------|
|-5\\3--0--0--0-0-0--0-0-5\\|\3--0--0--0--0-0-0--0-0-0-0|


        P.M.---------------|        P.M.---------------|
|---------------------------|---------------------------|
|---------------------------|---------------------------|
|---------------------------|---------------------------|
|---------------------------|---------------------------|
|-5//7----------------------|-5//7----------------------|
|-3//5--5--5--5-5-5--5-5-5-5|-3//5--5--5--5-5-5--5-5-5-5|


[ Tab from: http://www.guitartabs.cc/tabs/r/rammstein/du_hast_tab.html ]
        P.M.-----------|         P.M.------------------|
|---------------------------|---------------------------|
|---------------------------|---------------------------|
|---------------------------|---------------------------|
|---------------------------|---------------------------|
|-7//10------------------12\|\9-------------------------|
|-5//8--8--8--8-8-8--8-8-10\|\7--7--7--7--7-7-7--7-7-7-7|



        P.M.-----------|         P.M.------------------|
|---------------------------|---------------------------|
|---------------------------|---------------------------|
|---------------------------|---------------------------|
|---------------------------|---------------------------|
|-7\\5-------------------7\\|\5-------------------------|
|-5\\3--0--0--0-0-0--0-0-5\\|\3--0--0--0--0-0-0--0-0-0-0|



Fill 1 (Cool Synthesizer Part) (Its sound best like this on guitar, but I think
                               it's an octave up on the keyboard.  The timing
                               might be a little tricky, but it's right.)
(If you don't have 24 frets play this.)
|-12107--8--7------7-8-10-7-|---12107-8-7---7-8-10-7----|
|--------------10-----------|-------------10------------|
|---------------------------|---------------------------|
|---------------------------|---------------------------|
|---------------------------|---------------------------|
|---------------------------|---------------------------|


(For those who have 24 frets play this)
|-242219-20-19-----192022-19|---2422192019--19202219----|
|--------------22-----------|-------------22------------|
|---------------------------|---------------------------|
|---------------------------|---------------------------|
|---------------------------|---------------------------|
|---------------------------|---------------------------|


In case you only play keyboard, you probably have no clue of what the notes are
for the tablature so this is for the keyboardists who want to know this.
|-E-D-B--C--B--A---B-C-D--B-|---E-D-B-C-B-A-B-C-D-B-----|

(I don't know if this is helpful to anyone, so I wouldn't mind some feedback.)


That's all of the guitar parts and the best of the synthesizer.


Song Sequence:
	Intro (Non-Guitar)
Riff 1
	Non-Guitar Stuff
Riff 1
	Non-Guitar Stuff
Chorus Riff (2x)
Chorus Riff (1x) With Fill 1 (Synth.) (4x)
	Non-Guitar Stuff
Chorus Riff (2x)
	Small Rest (Non-Guitar)
Chorus Riff (2x)
Chorus Riff (1x) With Fill 1 (Synth.) (4x)
	Fill 1 (1x) (Synth.)
Comments