Rammstein - Du Hast Chords & Tabs

 

Du Hast Chords & Tabs

Rammstein Chords & Tabs

Version: 2 Type: Bass Tab 0 ratings
1 star 2 stars 3 stars 4 stars 5 stars
comments

Du Hast Bass Tab

Du Hast
By: Rammstein
Tabbed by: Chris Wurth

Song tuned in standard

Verse:
G|----------------------|----------------------|
D|----------------------|----------------------|
A|----------------------|----------------------|
E|-5--3--0-0-0-0-0-0-0--|--5--3--0-0-0-0-0-0-0-|
[ Tab from: http://www.guitartabs.cc/tabs/r/rammstein/du_hast_btab_ver_2.html ]
Chorus:
G|----------------------|x4|----------------------|x2|
D|----------------------|x4|----------------------|x2|
A|----------------------|x4|----------------------|x2|
E|-5--3--0-0-0-0-0-0-0--|x4|-5--7--7-7-7-7-7-7-7--|x2|

G|----------------------|x1|--------------------|x1|
D|----------------------|x1|--------------------|x1|
A|----------------------|x1|--------------------|x1|
E|-7--9--9-9-9-9-9-9-9--|x1|-9--7--0-0-0-0-0-0-0|x1|

E|-5--3--0-0-0-0-0-0-0|x2|

Any questions or comments, e-mail @ Embryo_99@hotmail.com                                                                     
Comments