Rammstein - Der Meister Chords & Tabs

 

Der Meister Chords & Tabs

Rammstein Chords & Tabs

Version: 1 Type: Bass Tab 0 ratings
1 star 2 stars 3 stars 4 stars 5 stars
comments

Der Meister Bass Tab

   
Der Meister - Rammstein

By: Jon Craven (i_apathy@hotmail.com)
For questions, comments, feedback, an outline of the timing, write the above
address.

Note:
  -Played with a pick.

(4/4)(130 bpm)
Dropped-D tuning

r - eighth rest
R - quarter rest

Intro (verse/fill): (x3)(0:30)
|----------------|----------------|
|----------------|----------------|
|5---3---5---3---|5---3---5---3-6-|
|--0---0---0---0-|--0---0---0-----|

Verse (x8)

Chorus: (1:25)
|----------------|----------------|----------------|----------------|----------------|----------------|
|----------------|----------------|----------------|----------------|----------------|----------------|
|5---3---5---3---|5---3---5---3-6-|5---3---5---3---|5---3---5---3-6-|5---3---5---3---|5---3---5---3-6-|
|--0---0---0---0-|--0---0---0-----|--0---0---0---0-|--0---0---0-----|--0---0---0---0-|--0---0---0-----|

|----------------|----------------|----------------|----------------|----------------|----------------|
|----------------|----------------|----------------|----------------|----------------|----------------|
|5---3---5---3---|5---3---5---3-6-|5---3---5---3---|5---3---5---3-r-|5---3---5---3---|5---3---5---3-r-|
|--0---0---0---0-|--0---0---0-----|--0---0---0---0-|--0---0---0-----|--0---0---0---0-|--0---0---0-----|
[ Tab from: http://www.guitartabs.cc/tabs/r/rammstein/der_meister_btab.html ]
|----------------|----------------|----------------|----------------|
|----------------|----------------|----------------|----------------|
|5---3---5---3---|5---3---5---3-r-|5---3---5---3---|5---3---5---3-r-|
|--0---0---0---0-|--0---0---0-----|--0---0---0---0-|--0---0---0-----|

Fill (x3)
Verse (x8)
Chorus

Bridge: (2:49)
|----------------|----------------|----------------|----------------|----------------|----------------|
|----------------|----------------|----------------|----------------|----------------|----------------|
|5---3---5---3---|5---3---5---3-6-|5---3---5---3---|5---3---5---3-6-|7---5---7---5---|7---5---7---5-8-|
|--0---0---0---0-|--0---0---0-----|--0---0---0---0-|--0---0---0-----|--0---0---0---0-|--0---0---0-----|

|----------------|----------------|
|----------------|----------------|
|7---5---7---5---|7---5---7---5-8-|
|--0---0---0---0-|--0---0---0-----|

Interlude pt.1: (x8)(3:04)
|----------------|
|----------------|
|--5-7-----5-7---|
|0-------0-------|

Interlude pt.2: (x4)(3:19)
|----------------|----------------|
|----------------|----------------|
|--3-5-----3-5---|--3-5-----5-7-5-|
|0-------0-------|0-------0-------|

Chorus

Outro: (4:03)
|----------------|----------------|----------------|
|----------------|----------------|----------------|
|5---3---5---3---|5---3---5---3-6-|5-r-R---R---R---|
|--0---0---0---0-|--0---0---0-----|----------------|

Rest till end
Comments