Rammstein - Das Modell Chords & Tabs

 

Das Modell Chords & Tabs

Rammstein Chords & Tabs

Version: 1 Type: Tab 0 ratings
1 star 2 stars 3 stars 4 stars 5 stars
comments

Das Modell Tab

Band - Rammstein
Song - Das Model


Main riff:
e|------------------------------------------------|
B|------------------------------------------------|
G|-------0------3----3----------------------------|
D|--xxxx-0-xxxx-3-xx-3-xxxx-0-xxxx-3-xx-3---------|
A|--xxxx-0-xxxx-3-xx-3-xxxx-0-xxxx-3-xx-3---------|
D|--xxxx---xxxx---xx---xxxx-0-xxxx-3-xx-3---------|

Riff 2:
e|------------------------------------------------------|
B|--------------------------/3--------------------------|
G|--/3---/2---------/3--/2--/3---------------2-2-2-2-2--|
D|--/3--/2--/3--/3--/3--/2--/3-4-4-4-4-4-5-5------------|
A|--/3--/2--/3--/3--/3--/2------------------------------|
D|----------/3--/3--------------------------------------|
[ Tab from: http://www.guitartabs.cc/tabs/r/rammstein/das_modell_tab.html ]
Riff 3:
e|--3--6-5-3-5-1----|
B|---------------3--|
G|------------------|
D|------------------|
A|------------------|
D|------------------|

Riff 4:
e|------------------------------|---------------------------1---|
B|--3-------3---3-4-3-------3-1-|-3-------3---3-4-3-------3-----|
G|----3-0-3---3-------2-0-2-----|---3-0-3---3-------2-0-2-------|
D|------------------------------|-------------------------------|
A|------------------------------|-------------------------------|
D|------------------------------|-------------------------------|

(Continued)

e|--------------------------------------------------------------------|
B|--------------------------------------------------------------------|
G|--3-----2----0------------3-----2-----7-----------------------------|
D|--------------3------------------------------------------2-2-2-2-2--|
A|-------------------------------------------4-4-4-4-4-5-5------------|
D|--------------------------------------------------------------------|
Comments