Rammstein - Das Alte Leid Chords & Tabs

 

Das Alte Leid Chords & Tabs

Rammstein Chords & Tabs

Version: 1 Type: Tab 0 ratings
1 star 2 stars 3 stars 4 stars 5 stars
comments

Das Alte Leid Tab

   
Tabbed by: Gollan - 1st one :D
Email: gollan_@hotmail.com 

Tuning: Standard.

After the awesum Drums intro:

Guitar Intro:

e|---------------------------------------------------------------------------|
B|---------------------------------------------------------------------------|
G|---------------------------------------------------------------------------|
D|0-4-0-4-x0-4-0-4-/-7-5--|--------------------------------------------------|
A|0-4-0-4-x0-4-0-4-/-7-5--|X8------------------------------------------------|
E|0-2-0-2-x0-2-0-2-/-5-3--|--------------------------------------------------|

First Verse:

e|---------------------------------------------------------------------------|
B|---------------------------------------------------------------------------|
G|---------------------------------------------------------------------------|
D|x|4-4|-x|4444|----------x|4-4|-x|4444|-------------------------------------|
A|x|4-4|-x|4444|-X4-------x|4-4|-x|4444|-X4----------------------------------|
E|x|2-2|-x|2222|----b5\3--x|2-2|-x|2222|-------------------------------------|

Guitar Solo:

e|---------------------------------------------------------------------------|
B|---------------------------------------------------------------------------|
G|---------------------------------------------------------------------------|
D|0-4-0-4-x0-4-0-4-/-7-5--|--------------------------------------------------|
A|0-4-0-4-x0-4-0-4-/-7-5--|x4------------------------------------------------|
E|0-2-0-2-x0-2-0-2-/-5-3--|--------------------------------------------------|

Second verse:

e|---------------------------------------------------------------------------|
B|---------------------------------------------------------------------------|
G|---------------------------------------------------------------------------|
D|x|4-4|-x|4444|----------x|4-4|-x|4444|-------------------------------------|
A|x|4-4|-x|4444|-X4-------x|4-4|-x|4444|-X4----------------------------------|
E|x|2-2|-x|2222|----b5\3--x|2-2|-x|2222|-------------------------------------|
                                     r^

Chorus ??? " Ich will ficken "
[ Tab from: http://www.guitartabs.cc/tabs/r/rammstein/das_alte_leid_tab.html ]
e|---------------------------------------------------------------------------|
B|---------------------------------------------------------------------------|
G|---------------------------------------------------------------------------|
D|0-4-0-4-x0-4-0-4-/-7-5--|--------------------------------------------------|
A|0-4-0-4-x0-4-0-4-/-7-5--|x18-----------------------------------------------|
E|0-2-0-2-x0-2-0-2-/-5-3--|--------------------------------------------------|

Quiet solo part:

e|---------------------------------------------------------------------------|
B|---------------------------------------------------------------------------|
G|---------------------------------------------------------------------------|
D|x|44-44-44|----------------------------------------------------------------|
A|x|44-44-44|-X4-------------------------------------------------------------|
E|x|22-22-22|----------------------------------------------------------------|
          r^
Third verse No Lead appart from end

e|---------------------------------------------------------------------------|
B|---------------------------------------------------------------------------|
G|---------------------------------------------------------------------------|
D|4--------------------------------------------------------------------------|
A|4--------------------------------------------------------------------------|
E|2--------------------------------------------------------------------------|
 r^
Solo part through to end:
 
e|---------------------------------------------------------------------------|
B|---------------------------------------------------------------------------|
G|---------------------------------------------------------------------------|
D|0-4-0-4-x0-4-0-4-/-7-5--|--------------------------------------------------|
A|0-4-0-4-x0-4-0-4-/-7-5--|x24-----------------------------------------------|
E|0-2-0-2-x0-2-0-2-/-5-3--|--------------------------------------------------|

END

| b  Bend
| /  slide up
| \  slide down
| h  hammer-on
| p  pull-off
| ~  vibrato
| +  harmonic
| x  Mute note
| r  Ring out
===============================================================================
Comments