Rammstein - Buck Dich Chords & Tabs

 

Buck Dich Chords & Tabs

Rammstein Chords & Tabs

Version: 6 Type: Tab 0 ratings
1 star 2 stars 3 stars 4 stars 5 stars
comments

Buck Dich Tab

   
band:RAMMSTEIN
song:BUCK DICH
tabbed by ramses2   linkinparkyachafeo@msn.com
Tunning E B G D A D


iNTRO

|---------------------|-----------------------|
|---------------------|-----------------------|
|---------------------|-----------------------|
|-0-3-2-3-5-3-0-2-3-0-|-0-0-3-2-3-5-3-0-2-3-0-|  4
|-0-3-2-3-5-3-0-2-3-0-|-0-0-3-2-3-5-3-0-2-3-0-|
|-0-3-2-3-5-3-0-2-3-0-|-0-0-3-2-3-5-3-0-2-3-0-|


01:09
|--------------------|
|--------------------|
|--------------------|
|-0-2-3-0------------|
|-0-2-3-0------------|
|-0-2-3-0------------|


cHORUS
|---------------------|
|---------------------|
|---------------------|
|-0-3-2-3-5-3-0-2-3-0-|
|-0-3-2-3-5-3-0-2-3-0-|  8
|-0-3-2-3-5-3-0-2-3-0-|


vERSE                     01:42
|---------------------------------------------------------------|
|---------------------------------------------------------------|
|---------------------------------------------------------------|
|-1/2\1/2\1/2\1/2\1/2\1/2\1/2\1/2\1/2\1/2\1/2\1/2\1/2\1/2\1/2\1-|
|-1/2\1/2\1/2\1/2\1/2\1/2\1/2\1/2\1/2\1/2\1/2\1/2\1/2\1/2\1/2\1-|
|-1/2\1/2\1/2\1/2\1/2\1/2\1/2\1/2\1/2\1/2\1/2\1/2\1/2\1/2\1/2\1-|

[ Tab from: http://www.guitartabs.cc/tabs/r/rammstein/buck_dich_tab_ver_6.html ]
cHORUS
|---------------------|
|---------------------|
|---------------------|
|-0-3-2-3-5-3-0-2-3-0-|
|-0-3-2-3-5-3-0-2-3-0-|  4
|-0-3-2-3-5-3-0-2-3-0-|


oUTRO           2:21  
|----------------------------------|
|----------------------------------|
|-1/2-1/2-1/2-1/2-1/2-1/2-1/2-1/2--|
|-1/2-1/2-1/2-1/2-1/2-1/2-1/2-1/2--|
|-1/2-1/2-1/2-1/2-1/2-1/2-1/2-1/2--|
|----------------------------------|


cHORUS
|---------------------|
|---------------------|
|---------------------|
|-0-3-2-3-5-3-0-2-3-0-|
|-0-3-2-3-5-3-0-2-3-0-|  2
|-0-3-2-3-5-3-0-2-3-0-|


oUTRO            
|-----------------------------------|
|-----------------------------------|
|-1/2-1/2-1/2-1/2-1/2-1/2-1/2-1/2-0-|
|-1/2-1/2-1/2-1/2-1/2-1/2-1/2-1/2-0-|
|-1/2-1/2-1/2-1/2-1/2-1/2-1/2-1/2-0-|
|-----------------------------------|


cHORUS
|---------------------|
|---------------------|
|---------------------|
|-0-3-2-3-5-3-0-2-3-0-|
|-0-3-2-3-5-3-0-2-3-0-|  4
|-0-3-2-3-5-3-0-2-3-0-|


oUTRO             
|-----------------------------------------------------------------|
|-----------------------------------------------------------------|
|-1/2-1/2-1/2-1/2-1/2-1/2-1/2-1/2-1/2-1/2-1/2-1/2-1/2-1/2-1/2-1/2-|
|-1/2-1/2-1/2-1/2-1/2-1/2-1/2-1/2-1/2-1/2-1/2-1/2-1/2-1/2-1/2-1/2-|
|-1/2-1/2-1/2-1/2-1/2-1/2-1/2-1/2-1/2-1/2-1/2-1/2-1/2-1/2-1/2-1/2-|
|-----------------------------------------------------------------|
Comments