Rammstein - Buck Dich Chords & Tabs

 

Buck Dich Chords & Tabs

Rammstein Chords & Tabs

Version: 4 Type: Tab 0 ratings
1 star 2 stars 3 stars 4 stars 5 stars
comments

Buck Dich Tab

Buck Dich                                     
Rammstein

                                                        2x
E||---------------------------|---------------------------||
B||---------------------------|---------------------------||
G||*--------------------------|--------------------------*||
D||*--------3-----2-----3-----|--5-----3-----0--2--3--0--*||
A||---------3-----2-----3-----|--5-----3-----0--2--3--0---||
D||---0--0--3--0--2--0--3--0--|--5--0--3--0--0--2--3--0---||


                                                                              
--------------------------|---------------------||---------------------------|
--------------------------|---------------------||---------------------------|
--------------------------|---------------------||*--------------------------|
--------3-----2-----3-----|--5-----3------------||*--------3-----2-----3-----|
--------3-----2-----3-----|--5-----3------------||---------3-----2-----3-----|
--0--0--3--0--2--0--3--0--|--5--0--3------------||---0--0--3--0--2--0--3--0--|


                           3x                                       6x
---------------------------||-------------------|-------------------||
---------------------------||-------------------|-------------------||
--------------------------*||*------------------|------------------*||
--5-----3-----0--2--3--0--*||*------------------|------------------*||
--5-----3-----0--2--3--0---||-------------------|-------------------||
--5--0--3--0--0--2--3--0---||-------------------|-------------------||


                                                                   
------------------|------------------||---------------------------|
------------------|------------------||---------------------------|
------------------|------------------||*--------------------------|
------------------|------------------||*--------3-----2-----3-----|
------------------|------------------||---------3-----2-----3-----|
------------------|------------------||---0--0--3--0--2--0--3--0--|


                           2x                                                 
---------------------------||--------------------------|---------------------|
---------------------------||--------------------------|---------------------|
--------------------------*||--------------------------|---------------------|
--5-----3-----0--2--3--0--*||--------3-----2-----3-----|--5-----3------------|
--5-----3-----0--2--3--0---||--------3-----2-----3-----|--5-----3------------|
--5--0--3--0--0--2--3--0---||--0--0--3--0--2--0--3--0--|--5--0--3------------|


                                                                              3x
|--------------------||---------------------------|---------------------------||
|--------------------||---------------------------|---------------------------||
|*------------------*||*--------------------------|--------------------------*||
|*------------------*||*--------3-----2-----3-----|--5-----3--------2--3-----*||
|--------------------||---------3-----2-----3-----|--5-----3--------2--3------||
|--------------------||---0--0--3--0--2--0--3--0--|--5--0--3--0--0--2--3--0---||

[ Tab from: http://www.guitartabs.cc/tabs/r/rammstein/buck_dich_tab_ver_4.html ]
                                                       7x
---------------------------|---------------------------||
---------------------------|---------------------------||
*--------------------------|--------------------------*||
*--------------------------|--------------------------*||
------3-----3-----3-----3--|-----3-----3-----3-----3---||
---0--3--0--3--0--3--0--3--|--0--3--0--3--0--3--0--3---||


                                                       3x
---------------------------|---------------------------||
---------------------------|---------------------------||
*--------------------------|--------------------------*||
*--------3-----2-----3-----|--5-----3-----0--2--3--0--*||
---------3-----2-----3-----|--5-----3-----0--2--3--0---||
---0--0--3--0--2--0--3--0--|--5--0--3--0--0--2--3--0---||


                                                          
----------------------------||---------------------------|
----------------------------||---------------------------|
*--------------------------*||*--------------------------|
*--------------------------*||*--------3-----2-----3-----|
------1-----1-----1-----1---||---------3-----2-----3-----|
---1--1--1--1--1--1--1--1---||---0--0--3--0--2--0--3--0--|


                                                                               
---------------------------||----------------------------||-------------------|
---------------------------||----------------------------||-------------------|
--------------------------*||*--------------------------*||-------------------|
--5-----3-----0--2--3--0--*||*--------------------------*||--0----------------|
--5-----3-----0--2--3--0---||------1-----1-----1-----1---||--0----------------|
--5--0--3--0--0--2--3--0---||---1--1--1--1--1--1--1--1---||--0----------------|


                                                           6x
------------------||-------------------|-------------------||
------------------||-------------------|-------------------||
------------------||*------------------|------------------*||
------------------||*------------------|------------------*||
------------------||-------------------|-------------------||
------------------||-------------------|-------------------||


                                       7x                            
-------------------|-------------------||---------------------------|
-------------------|-------------------||---------------------------|
*------------------|------------------*||*--------------------------|
*------------------|------------------*||*--------3-----2-----3-----|
-------------------|-------------------||---------3-----2-----3-----|
-------------------|-------------------||---0--0--3--0--2--0--3--0--|


                           3x                            3x
---------------------------||----------------------------||
---------------------------||----------------------------||
--------------------------*||*--------------------------*||
--5-----3-----0--2--3--0--*||*--------------------------*||
--5-----3-----0--2--3--0---||------1-----1-----1-----1---||
--5--0--3--0--0--2--3--0---||---1--1--1--1--1--1--1--1---||


                      
--------------------||
--------------------||
--------------------||
-----0--------------||
--1--0--------------||
--1--0--------------||
Comments