Rammstein - Benzin Chords & Tabs

 

Benzin Chords & Tabs

Rammstein Chords & Tabs

Version: 1 Type: Tab 0 ratings
1 star 2 stars 3 stars 4 stars 5 stars
comments

Benzin Tab

Artist: Rammstein
Album:  Rosenrot
Title:  Benzin

Hi, that's my first tab of Rammsteins new song Benzin, have fun.
It's very easy...

Tuning: Drop C (CGCFAD)


[ Tab from: http://www.guitartabs.cc/tabs/r/rammstein/benzin_tab.html ]
Intro, Verse, Fill
D|--------------------------------------------------|
A|---2---1-----2---1--/5------2---1-----2---1-------|
F|---------------------------------------------0----|
C|--------------------------------------------------|
G|--------------------------------------------------|
C|--------------------------------------------------|
Riff, PreChorus
D|----------------------------|
A|----------------------------|
F|----------------------------|
C|--000000000000000000000000--|
G|--000000000000000000000000--|
C|--000000000000000000000000--|

Refrain
D|------------------------------------------------|
A|------------------------------------------------|
F|------------------------------------------------|
C|--0----1----0---0-0-0-1--2-----0----1----0--1--2|
G|--0----1----0---0-0-0-1--2-----0----1----0--1--2|
C|--0----1----0---0-0-0-1--2-----0----1----0--1--2|


Intro       x2
Riff        x2
Verse       x2
Refrain
Verse
Refrain     x2
Riff        x2
Fill        x2
PreChorus
Refrain
Riff


 Naturian
Email: davidarmstrong@web.de
Comments