Rammstein - Asche Zu Ashe Chords & Tabs

 

Asche Zu Ashe Chords & Tabs

Rammstein Chords & Tabs

Version: 1 Type: Bass Tab 0 ratings
1 star 2 stars 3 stars 4 stars 5 stars
comments

Asche Zu Ashe Bass Tab

Okay heres the right version of asche zu asche.
           
[ Tab from: http://www.guitartabs.cc/tabs/r/rammstein/asche_zu_ashe_btab.html ]
 Verse
G|------------------------------------------------------
D|------------------------------------------------------
A|------------------------------------------------------
E|----3-000---5-000-6-00-5-3----------------------------


Bass solo
G|---12---------14---------15--------14----12-----
D|------------14--------14--------14--------------
A|------------------------------------------------
E|-------00--------00---------0---------0---------
Comments