Rammstein - Amerika Chords & Tabs

 

Amerika Chords & Tabs

Rammstein Chords & Tabs

Version: 3 Type: Bass Tab 0 ratings
1 star 2 stars 3 stars 4 stars 5 stars
comments

Amerika Bass Tab

-------------------------------------------------------------------------------
			     Amerika - Rammstein
-------------------------------------------------------------------------------

Tabbed By : doombassist
e-mail: zero_1942@hotmail.com

Tuning: CGCF


                                                                               
F||------------------|------------------|------------------|------------------|
C||------------------|------------------|------------------|------------------|
G||------------------|------------------|------------------|------------------|
C||------------------|------------------|------------------|------------------|


                                                                            
------------------|------------------|------------------|------------------|
------------------|------------------|------------------|------------------|
------------------|------------------|------------------|------------------|
------------------|------------------|------------------|------------------|


                                                      
--------------------------|--------------------------|
--------------------------|--------------------------|
--------------------------|--------------------------|
--0--0--0--0--0--0--0--0--|--0--0--0--0--0--0--0--0--|


                                                      
--------------------------|--------------------------|
--------------------------|--------------------------|
--------------------------|--------------------------|
--2--2--2--2--2--2--2--2--|--2--2--2--2--2--2--2--2--|


                                                      
--------------------------|--------------------------|
--------------------------|--------------------------|
--------------------------|--------------------------|
--0--0--0--0--0--0--0--0--|--3--3--3--3--3--3--3--3--|


                                                                               
--------------------------|--------------------------|------------------------|
--------------------------|--------------------------|------------------------|
--------------------------|--------------------------|------------------------|
--2--2--2--2--2--2--2--2--|--5--5--5--5--5--5--5--5--|--0--2--2--2--2------2--|


                                                                             
-------------------------|------------------------|-------------------------|
-------------------------|------------------------|-------------------------|
-------------------------|------------------------|-------------------------|
--2--2--2----2--2--2--0--|--0--2--2--2--2------2--|--2--2--2----5--5--0--0--|


                                                                            
------------------------|-------------------------|------------------------|
------------------------|-------------------------|------------------------|
------------------------|-------------------------|------------------------|
--0--2--2--2--2------2--|--2--2--2----2--2--2--0--|--0--2--2--2--2------2--|


                                                                             
-------------------------|------------------------|-------------------------|
-------------------------|------------------------|-------------------------|
-------------------------|------------------------|-------------------------|
--2--2--2----5--5--0--0--|--0--2--2--2--2------2--|--2--2--2----2--2--2--2--|


                                                                            
------------------------|-------------------------|------------------------|
------------------------|-------------------------|------------------------|
------------------------|-------------------------|------------------------|
--4--4--4--4--4------4--|--4--4--4----4--4--4--4--|--0--2--2--2--2------2--|


                                                                             
-------------------------|------------------------|-------------------------|
-------------------------|------------------------|-------------------------|
-------------------------|------------------------|-------------------------|
--5--5--5----5--5--5--5--|--4--4--4--4--4------4--|--4--4--4----4--4--4--4--|


                                                                 
------------------|------------------|--------------------------|
------------------|------------------|--------------------------|
------------------|------------------|--------------------------|
------------------|------------------|--0--0--0--0--0--0--0--0--|


                                                      
--------------------------|--------------------------|
--------------------------|--------------------------|
--------------------------|--------------------------|
--0--0--0--0--0--0--0--0--|--2--2--2--2--2--2--2--2--|


                                                      
--------------------------|--------------------------|
--------------------------|--------------------------|
--------------------------|--------------------------|
--2--2--2--2--2--2--2--2--|--0--0--0--0--0--0--0--0--|


                                                      
--------------------------|--------------------------|
--------------------------|--------------------------|
--------------------------|--------------------------|
--3--3--3--3--3--3--3--3--|--2--2--2--2--2--2--2--2--|


                                                                              
--------------------------|------------------------|-------------------------|
--------------------------|------------------------|-------------------------|
--------------------------|------------------------|-------------------------|
--5--5--5--5--5--5--5--5--|--0--2--2--2--2------2--|--2--2--2----2--2--2--0--|


                                                                            
------------------------|-------------------------|------------------------|
------------------------|-------------------------|------------------------|
------------------------|-------------------------|------------------------|
--0--2--2--2--2------2--|--2--2--2----5--5--0--0--|--0--2--2--2--2------2--|

[ Tab from: http://www.guitartabs.cc/tabs/r/rammstein/amerika_btab_ver_3.html ]
                                                                             
-------------------------|------------------------|-------------------------|
-------------------------|------------------------|-------------------------|
-------------------------|------------------------|-------------------------|
--2--2--2----2--2--2--0--|--0--2--2--2--2------2--|--2--2--2----5--5--0--0--|


                                                                            
------------------------|-------------------------|------------------------|
------------------------|-------------------------|------------------------|
------------------------|-------------------------|------------------------|
--0--2--2--2--2------2--|--2--2--2----2--2--2--2--|--4--4--4--4--4------4--|


                                                                             
-------------------------|------------------------|-------------------------|
-------------------------|------------------------|-------------------------|
-------------------------|------------------------|-------------------------|
--4--4--4----4--4--4--4--|--0--2--2--2--2------2--|--5--5--5----5--5--5--5--|


                                                                      
------------------------|-------------------------|------------------|
------------------------|-------------------------|------------------|
------------------------|-------------------------|------------------|
--4--4--4--4--4------4--|--4--4--4----4--4--4--4--|------------------|


                                                                           
------------------||---------------------------|--------------------------|
------------------||---------------------------|--------------------------|
------------------||---------------------------|--------------------------|
------------------||---0--0--0--0--0--0--0--0--|--0--0--0--0--0--0--0--0--|


                                                      
--------------------------|--------------------------|
--------------------------|--------------------------|
--------------------------|--------------------------|
--2--2--2--2--2--2--2--2--|--2--2--2--2--2--2--2--2--|


                                                      
--------------------------|--------------------------|
--------------------------|--------------------------|
--------------------------|--------------------------|
--0--0--0--0--0--0--0--0--|--3--3--3--3--3--3--3--3--|


                                                        
--------------------------|---------------------------||
--------------------------|---------------------------||
--------------------------|---------------------------||
--2--2--2--2--2--2--2--2--|--5--5--5--5--5--5--5--5---||


                                                                               
--------------------------|-------------------------|-------------------------|
--------------------------|-------------------------|-------------------------|
--------------------------|-------------------------|-------------------------|
---0--2--2--2--2~---0--2--|--2--2--2~---0--2--2--2--|--0--2--2--2--2~---0--2--|


                                                       
--------------------------||--------------------------|
--------------------------||--------------------------|
--------------------------||--------------------------|
--2--2--2~---5--5--0--0---||--3--3--3--3--3--3--3--3--|


                                                      
--------------------------|--------------------------|
--------------------------|--------------------------|
--0--0--0--0--0--0--0-----|--------------------------|
-----------------------2--|--0--2--2--2--2--2--2--2--|


                                                      
--------------------------|--------------------------|
--------------------------|--------------------------|
--------------------------|--------------------------|
--0--2--2--2--2--2--2--2--|--3--3--3--3--3--3--3--3--|


                                                      
--------------------------|--------------------------|
--------------------------|--------------------------|
--0--0--0--0--0--0--0-----|--------------------------|
-----------------------2--|--0--2--2--2--2--2--2--2--|


                                                                 
--------------------------|------------------|------------------|
--------------------------|------------------|------------------|
--------------------------|------------------|------------------|
--0--2--2--2--2--2--2--2--|------------------|------------------|


                                                        
|---------------------------|--------------------------|
|---------------------------|--------------------------|
|---------------------------|--------------------------|
|---0--0--0--0--0--0--0--0--|--0--0--0--0--0--0--0--0--|


                                                      
--------------------------|--------------------------|
--------------------------|--------------------------|
--------------------------|--------------------------|
--2--2--2--2--2--2--2--2--|--2--2--2--2--2--2--2--2--|


                                                      
--------------------------|--------------------------|
--------------------------|--------------------------|
--------------------------|--------------------------|
--0--0--0--0--0--0--0--0--|--3--3--3--3--3--3--3--3--|


                                                        
--------------------------|---------------------------||
--------------------------|---------------------------||
--------------------------|---------------------------||
--2--2--2--2--2--2--2--2--|--5--5--5--5--5--5--5--5---||


                                                                               
--------------------------|-------------------------|-------------------------|
--------------------------|-------------------------|-------------------------|
--------------------------|-------------------------|-------------------------|
---0--2--2--2--2~---0--2--|--2--2--2~---0--2--2--2--|--0--2--2--2--2~---0--2--|


                         
-----------------------||
-----------------------||
-----------------------||
--2--2--2~---5---------||
Comments