Rammstein - Amerika Chords & Tabs

 

Amerika Chords & Tabs

Rammstein Chords & Tabs

Version: 1 Type: Bass Tab 0 ratings
1 star 2 stars 3 stars 4 stars 5 stars
comments

Amerika Bass Tab

This is my first tab, nice and easy but great sounding song



Drop D tuning - drop it down a complete step.

Chorus #1: Heavy Distortion
|-----------------------------------------------------------|
|-----------------------------------------------------------|
|-----------------------------------------------------------|
|--1--1--1--1--1--1--1-4-8--8--8--8--8--8-6--6--6--3--3--3--|
   We're all living in amerika,         amerika is wunderbar

|----------------------------------------------------------|
|----------------------------------------------------------|
|----------------------------------------------------------|
|--1--1--1--1--1--1--1-4-8--8--8--8--11-11-3-3--11-11-3-3--|
   We're all living in amerika,      a--merika, a--merika

Verse #1: Play Clean

 Riff 1  |---------|   riff 2 |---------|
         |------5--|          |------6--|
         |---6-----|          |----8----|
         |-8-------|          |-10------|


Chorus #2: Heavy Distortion
|-----------------------------------------------------------|
|-----------------------------------------------------------|
|-----------------------------------------------------------|
|--1--1--1--1--1--1--1-4-8--8--8--8--8--8-6--6--6--3--3--3--|
   We're all living in amerika,         amerika is wunderbar

|----------------------------------------------------------|
|----------------------------------------------------------|
|----------------------------------------------------------|
|--1--1--1--1--1--1--1-4-8--8--8--8--11-11-3-3--11-11-3-3--|
   We're all living in amerika,      a--merika, a--merika

Verse #2: use same riffs as verse 1


Chorus #3: Heavy Distortion
|-----------------------------------------------------------|
|-----------------------------------------------------------|
|-----------------------------------------------------------|
|--1--1--1--1--1--1--1-4-8--8--8--8--8--8-6--6--6--3--3--3--|
   We're all living in amerika,         amerika is wunderbar

|----------------------------------------------------------|
|----------------------------------------------------------|
|----------------------------------------------------------|
|--1--1--1--1--1--1--1-4-8--8--8--8--11-11-3-3--11-11-3-3--|
   We're all living in amerika,      a--merika, a--merika
[ Tab from: http://www.guitartabs.cc/tabs/r/rammstein/amerika_btab.html ]
|------------------------------------------------------------|
|------------------------------------------------------------|
|------------------------------------------------------------|
|--1--1--1--1--1--1--1-4-8--8--8--8--8--8-6--6--6---3--3--3--|
   We're all living in amerika,           coca cola wonderbra

|----------------------------------------------------------|
|----------------------------------------------------------|
|----------------------------------------------------------|
|--1--1--1--1--1--1--1-4-8--8--8--8--11-11-3-3--11-11-3-3--|
   We're all living in amerika,      a--merika, a--merika

(KeyBoard Solo)
|R-----|
|E-----|
|S-----|
|T-----|

Bridge:                        
|-----------------------------------||-----------------------------------|
|-----------------------------------||-----------------------------------|
|-----------------------------------||-----------------------------------|
|-1--2-2-1-2--2-1--2--2--2--1-3-3-3-||-1--2-2-1-2--2-1--2--2--2--7-7-4-4-|

Last Chorus: Heavy Distortion
|-----------------------------------------------------------|
|-----------------------------------------------------------|
|-----------------------------------------------------------|
|--1--1--1--1--1--1--1-4-8--8--8--8--8--8-6--6--6--3--3--3--|
   We're all living in amerika,         amerika is wunderbar

|----------------------------------------------------------|
|----------------------------------------------------------|
|----------------------------------------------------------|
|--1--1--1--1--1--1--1-4-8--8--8--8--11-11-3-3--11-11-3-3--|
   We're all living in amerika,      a--merika, a--merika

|-----------------------------------------------------------------|
|-----------------------------------------------------------------|
|-----------------------------------------------------------------|
|--1--1--1--1--1--1--1-4-8--8--8--8--8--8-6--6--6---3--3--3--3--3-|
   We're all living in amerika,           coca cola sometimes war

|----------------------------------------------------------|
|----------------------------------------------------------|
|----------------------------------------------------------|
|--1--1--1--1--1--1--1-4-8--8--8--8--11-11-3-3--11-11-3-3--|
   We're all living in amerika,      a--merika, a--merika

Outro:
|-----------------------------------||-----------------------------------|
|-----------------------------------||-----------------------------------|
|-----------------------------------||-----------------------------------|
|-1--2-2-1-2--2-1--2--2--2--1-3-3-3-||-1--2-2-1-2--2-1--2--2--2--7-7-4-4-|
Comments