Rammstein - Adios Chords & Tabs

 

Adios Chords & Tabs

Rammstein Chords & Tabs

Version: 2 Type: Tab 2 ratings
1 star 2 stars 3 stars 4 stars 5 stars
comments

Adios Tab

   
This is a cool song...is one of my favorites & also its pretty easy,
nice for practicing and for beginers...enjoy it!/

Tuning: Drop D (D,A,D,G,B,e)

Intro Riff - Clean tone (2x)

e----------------------------------------------------------|
b----------------------------------------------------------|
g-------------10-10-10-10/12-12-X--------------------------|
D---8-8-8-8-X-10-10-10-10/12-12-X-12-12-12-12-10-10--------|
A---8-8-8-8-X--8--8--8--8/10-10-X-12-12-12-12-10-10--------|
D---8-8-8-8-X-------------------X-12-12-12-12-10-10--------|

(Each chord is repeated around 6 or 7 times...)

Riff 2 (Distortion) (play this 4 times and then just finish it with the
beginning of this riff)
[ Tab from: http://www.guitartabs.cc/tabs/r/rammstein/adios_tab_ver_2.html ]
e------------|----------------------------------------------|
b------------|----------------------------------------------|
g------10--7-|----------------------------------------------|
D---8--10--7-|----------------------------------------------|
A---8--8---5-|-------------3h5--------------3h5-------------|
D---8--------|-0-0-0-0-0-0------0-0-0-0-0-0-----0-0-0-0-0-0-|

            |- - PM - - |    |- - PM - - |    |- - PM - - |

Verse (Just repeat this each time Till says a pharse and just variate it,
in the last parts of the verses)

e------------|
b------------|
g------10--7-|
D---8--10--7-|
A---8--8---5-|
D---8--------|

Riff 4 (Nicht is fur dich...) Clean part, as intro.
Second time just use distortion

e----------------------------------------------------------|
b----------------------------------------------------------|
g-------------10-10-10-10/12-12-X--------------------------|
D---8-8-8-8-X-10-10-10-10/12-12-X-12-12-12-12-10-10--------|
A---8-8-8-8-X--8--8--8--8/10-10-X-12-12-12-12-10-10--------|
D---8-8-8-8-X-------------------X-12-12-12-12-10-10--------|

Solo

e---------------------------|-----------|------------------|
b--8-10-10-8-10-10-8-10-10--|---8-6-----|---10-8-6---------|
g---------------------------|-------9---|----------9-------|
D---------------------------|-----------|------------------|
A---------------------------|-----------|------------------|
D---------------------------|-----------|------------------|
Comments