Rally Car - What The Hell Chords & Tabs

 

What The Hell Chords & Tabs

Rally Car Chords & Tabs

Version: 1 Type: Bass Tab 0 ratings
1 star 2 stars 3 stars 4 stars 5 stars
comments

What The Hell Bass Tab

   
Band: Rally Car
Song: What the Hell
Album: Gear Down
Label: Q Ball Records
Tabbed By: Donahue2

This song sucks.

Tuning: Standard (EADG)

INTRO:
G|------------------------------------------------------------------------|
D|------------------------------------------------------------------------|
A|------------------1-1-1-11-11-1-1------------------1-1-xx-1-1-xx-1-xxx--|
E|--2-2-2-22-22-2-1-----------------2-2-2-22-2-2-2-1----------------------|

VERSE:
G|-----------------------------------|
D|-----------------------------------|X3
A|------------------1-1-1-11-11-1-1--|
E|--2-2-2-22-22-2-1------------------|

(On fourth time):
G|------------------------|
D|------------------------|
A|------------------1-11--|
E|--2-2-2-22-22-2-1-------|
"I woke up tired,
 My Head is spinning, I cannot sleep,
 My mind is racing,
 Wont someone tell me - What the hell is wrong with me?"

CHORUS:
G|-----------------------------------|
D|-----------------------------------|X3
A|------------------1-1-1-11-11-1-1--|
E|--2-2-2-22-22-2-1------------------|

(On fourth time):
G|---------------------------------------|
D|---------------------------------------|
A|------------------1-1-xx-1-1-xx-1-xxx--|
E|--2-2-2-22-22-2-1----------------------|
"What the hell is wrong with me?
 What the hell is wrong with me?
 I'm crooked."
[ Tab from: http://www.guitartabs.cc/tabs/r/rally_car/what_the_hell_btab.html ]
VERSE:
"I take a long walk - to get you off my mind,
 I try to forget our good times,
 I know it's something - something to do with you,
 Wont someone tell me - What the hell is wrong with me?"

CHORUS:
"What the hell is wrong with me? (I don't know)
 What the hell is wrong with me? (I don't know)
 I'm crooked."

BREAKDOWN:
G|---------------------------------------------------------------|
D|---------------------------------------------------------------|
A|--2-22-22-22-2-2-------------------------------1-11-11-11-1-1--|
E|-----------------4-44-44-44-4-4-2-22-22-22-2-2-----------------|

G|--------------------------------------------------------------------|
D|--------------------------------------------------------------------|
A|--2-22-22-22-2-2-------------------------------1-1-xx-1-1-xx-1-xxx--|
E|-----------------4-44-44-44-4-4-2-22-22-22-2-2----------------------|

G|-----------------------|
D|-----------------------|
A|--2-22-22-22-2-2-------|
E|-----------------4-44--|
"I try to keep this all inside - I hate you,
 I don't know how I could have tried to love you,
 It's how I feel - What the hell is wrong with me?"

CHORUS:
"What the hell is wrong with me?
 What the hell is wrong with me?
 What the hell is wrong with me?

OUTRO:
G|-----|
D|-----|
A|-----|
E|--2--|
"What the hell is wrong with me?"

| /  slide up
| \  slide down
| h  hammer-on
| p  pull-off
| ~  vibrato
| +  harmonic
| x  Mute note

Donahue2: point_blanc99@hotmail.com
Comments