Rakhe - My Heart Chords & Tabs

 

My Heart Chords & Tabs

Rakhe Chords & Tabs

Version: 1 Type: Tab 0 ratings
1 star 2 stars 3 stars 4 stars 5 stars
comments

My Heart Tab

-3--0-2---3--0-2---3-0------------0---3--0-2---3--0-2---3-0--------------0  this is a repetive 
-----------------------4-0----0-4---------------------------4-0----0-4----  play throughout the 
---------------------------3-------------------------------------3--------  it will help a lot
--------------------------------------------------------------------------  ifyou remember this 
--------------------------------------------------------------------------  and play it right.
--------------------------------------------------------------------------  

repeat line above two time before playing the next piece of work.
[ Tab from: http://www.guitartabs.cc/tabs/r/rakhe/my_heart_tab.html ]
-3-0-2-1-0--------3-0-2-1-0---3-0-2-1-0--------3-0-2-1-0------------------
-----------2-0-1------------------------2-0-1-----------------------------
--------------------------------------------------------------------------
--------------------------------------------------------------------------
--------------------------------------------------------------------------
--------------------------------------------------------------------------

the solo will only work on electric or bass guitars. it helps to play it with more rhythm
than shown.

-3-0-2-1-0-1-2-3-0-2-0-3-0-2-3-0-2-1-0--------3-0-2-0-3-0-2-1-0-----------
---------------------------------------2-0-1--------------------2-0-1-----
--------------------------------------------------------------------------
--------------------------------------------------------------------------
--------------------------------------------------------------------------
--------------------------------------------------------------------------

-3--0-2---3--0-2---3--0-2---3--0-2---3-0--------------0---3--0-2---3--0-2-
-3--0-2---3--0-2---3--0-2---3--0-2---3-0-4-0----0-4-------3--0-2---3--0-2-
---------------------------------------------3----------------------------
--------------------------------------------------------------------------
--------------------------------------------------------------------------
--------------------------------------------------------------------------

from Rakhe, the king of lyrics and guitar tabs.
Comments