Rak - My Misery Chords & Tabs

 

My Misery Chords & Tabs

Rak Chords & Tabs

Version: 1 Type: Tab 0 ratings
1 star 2 stars 3 stars 4 stars 5 stars
comments

My Misery Tab

   
Intro/Outro:
e|--------------------------------------|
H|--------------------------------------|
G|-------------0---------0------0-------|
D|----0----0h2---2---2s4--4-------0-----|
A|--2---3----------3-3s5------2------2--|
E|3-------------------------3-----------|

Intro/Outro2:
e|--------------------------------------|
H|--------------------------------------|
G|-------------0---------0-------0------|
D|----0----0h2---2---2s4--4----4---4----|
A|--2---3----------3-3s5-----5-------5--|
E|3-------------------------------------|

Verse/Chorus:
 G      C            D      G
|3------3------------2------3-----------|
|3------3------------3------3-----------|
|0------0------------0------0-----------|
|0------2------------0------0-----------|
|2------3-------------------2-----------|
|3--------------------------3-----------|

Break:
 E      C            D      G
|0------0------------2------3-----------|
|0------1------------3------3-----------|
|0------0------------2------0-----------|
|2------2------------0------0-----------|
|2------3------------0------2-----------|
|0--------------------------3-----------|
 
 E      C            D
|0------0------------2------------------|
|0------1------------3------------------|
|0------0------------2------------------|
|2------2------------0------------------|
|2------3------------0------------------|
|0--------------------------------------|

Interlude:
 E      C            E      C
|0------0------------0------0-----------|
|0------1------------0------1-----------|
|0------0------------0------0-----------|
|2------2------------2------2-----------|
|2------3------------2------3-----------|
|0-------------------0------------------|
[ Tab from: http://www.guitartabs.cc/tabs/r/rak/my_misery_tab.html ]
 E	C	     D
|0------0------------2------------------|
|0------1------------3------------------|
|0------0------------2------------------|
|2------2------------0------------------|
|2------3------------0------------------|
|0--------------------------------------|
 
 G	C	     G      C
|3------3------------3------3-----------|
|3------3------------3------3-----------|
|0------0------------0------0-----------|
|0------2------------0------2-----------|
|2------3------------2------3-----------|
|3-------------------3------------------|

 G	C	     D
|3------3------------2------------------|
|3------3------------3------------------|
|0------0------------2------------------|
|0------2------------0------------------|
|2------3------------0------------------|
|3--------------------------------------|

End(before Outro):
 D      G	     D      D
|2------3------------2------3-----------|
|3------3------------3------3-----------|
|2------0------------2------0-----------|
|0------0------------0------0-----------|
|0------2------------0------2-----------|
|-------3-------------------3-----------|

Outro3:
|--------------------3------------------||
|--------------------3------------------||
|--0---0---0---0-----0------------------||
|4---4---4---4-------0------------------||
|--------------------2------------------||
|--------------------3------------------||

Ablauf:

(2nd Guitar plays straight through)

Intro/Outro  3x (Lg)
Intro/Outro2 1x (Lg)
Verse        2x (Lg)
Verse        4x (V,Lg)
Break        1x (Lg)
Verse	     2x (B,Lg,D)
Verse        4x (V,B,Lg,D)
Break        1x (B,Lg,D)
chorus       4x (V,B,Lg,D)
Verse        2x (B,Lg,D)
Verse        4x (V,B,Lg,D)
Break        1x (B,Lg,D)
Chorus       4x (V,B,Lg,D)
Chorus       2x (B,Lg,D)
Interlude    1x (B,Lg[Sülü?],D)
4 Takte G-Dur   (2nd guitar only)
Verse        8x (D-Dur halten statt G am Ende) (V)
Chorus       2x (B,Lg,D)
Chorus       4x (V,B,Lg,D)
Chorus       2x (V,B,Lg,D)
End          3,75x(d.h Der G-Dur am Ende ist bereits
                   der Erste im nächsten Takt) (V,B,Lg,D)
Verse        4x (Lg)
Intro/Outro  3x 
Outro3       1x
Comments