Rainbow Butt Monkeys - St Louis Chords & Tabs

 

St Louis Chords & Tabs

Rainbow Butt Monkeys Chords & Tabs

Version: 1 Type: Tab 0 ratings
1 star 2 stars 3 stars 4 stars 5 stars
comments

St Louis Tab

   
Rainbow Butt Monkeys: St.Louis
Tabber: Jacob Belisario
Tuning: Standard
E-mail: J_dawg2992@msn.com

Main Riff:
------------------------------------------------------------------|
7/----------------------------------------------------------------|
7/----------------------------------------------------------------|
7/----2---22--55-5------------------------------------------------|
5/----2---22--55-5------------------------------------------------|
------0---00--33-3------------------------------------------------|

Breakdown (Under solo)

-----------------|-------------------------------------------------|
7/---------------|--7/---------------------------------------------|
7/---------------|--7/--2----22------------------------------------|
7/---2-----22----|--7/--2----22------------------------------------|
5/---2-----22----|--5/--0----00------------------------------------|
-----0-----00----|-------------------------------------------------|


Riff B
[ Tab from: http://www.guitartabs.cc/tabs/r/rainbow_butt_monkeys/st_louis_tab.html ]
------------------------------------------------------------------|
------------------------------------------------------------------|
------------------------------------------------------------------|
777-/--5----------------------------------------------------------|
777-/--5----------------------------------------------------------|
555-/--3----------------------------------------------------------|


Chorus

------------------------------------------------------------------|
------------------------------------------------------------------|
------------------------------------------------------------------|
2-2--7-7- -5-5--2-------------------------------------------------|
2-2--7-7---5-5--2-------------------------------------------------|
0-0--5-5---3-3--0-------------------------------------------------|

After Solo Fill
In Main Riff

----------5(bend)-5-3---------------------------------------------|
7/----------------------------------------------------------------|
7/----------------------------------------------------------------|
7/----2-----------------55-5--------------------------------------|
5/----2-----------------55-5--------------------------------------|
------0-----------------33-3--------------------------------------|


Ill send in more tabs... trying to figure out "Let's Pretend"... please rate this tab.
Comments