Rainbow Butt Monkeys - Scrumpy Chords & Tabs

 

Scrumpy Chords & Tabs

Rainbow Butt Monkeys Chords & Tabs

Version: 1 Type: Tab 0 ratings
1 star 2 stars 3 stars 4 stars 5 stars
comments

Scrumpy Tab

   
#---------------------------------PLEASE NOTE----------------------------------#
#This file is the author's own work and represents their interpretation of the #
#song. You may only use this file for private study, scholarship, or research. #
#------------------------------------------------------------------------------#
#------------Created with Taborama Tab Creator-----------------#
#------------------------------------------------------------------------------#

Title: Scrumpy
Artist: Rainbow Butt Monkeys
Album: Letters From Chutney

Instrument: 6 String Guitar

Tabbed by: Jeremy McCully (webmaster@)

Tuning: Standard (E A D G B E)Intro:
E|---------------------------------||
B|---------------------------------||
G|---------------------------------||
D|---------------------------------||
A|-------------3-------------------||
E|--2-3-4-3-2-----2----------------||

Riff 1:
E|-----------------------|2|------------------------||
B|-----------------------|T|------------------------||
G|-----------------------|I|------------------------||
D|--4-5-6-5-4---4//10--9-|M|--2---------------------||
A|--4-5-6-5-4---4//10--9-|E|--2---------------------||
E|--2-3-4-3-2---2//-8--7-|S|--0---------------------||

Riff 2:(w/wah)       A                   B
E|------------|----------------|--------------------||
B|------------|----------------|--------------------||
G|------------|----------------|--------------------||
D|------------|----------------|--------------------||
A|-------0-2--|--------------0-|---2-/-3-3-3-3-3----||
E|--0-2-------|--0-2--0-2--0---|--------------------||

Riff 3:
E|--------------------------------------------------||
B|--------------------------------------------------||
G|--------------------------------------------------||
D|--9-9-9-9-9-9-9-9-5-5-5-5-5-5-5-5-----------------||
A|--9-9-9-9-9-9-9-9-5-5-5-5-5-5-5-5-----------------||
E|--7-7-7-7-7-7-7-7-3-3-3-3-3-3-3-3-----------------||

[guitar one]
E|--------------------------------------------------||
B|--------------------------------------------------||
G|--------------------------------------------------||
D|--9-9-9-9-9-9-9-12-12-5-5-5-5-5-5-5---------------||
A|--9-9-9-9-9-9-9-12-12-5-5-5-5-5-5-5---------------||
E|--7-7-7-7-7-7-7-10-10-3-3-3-3-3-3-3---------------||
[ Tab from: http://www.guitartabs.cc/tabs/r/rainbow_butt_monkeys/scrumpy_tab.html ]
[guitar two]
E|--------------------------------------------------||
B|--------------------------------------------------||
G|--------------------------------------------------||
D|--9-9-9-9-9-9-9-9-5-5-5-5-5-5-5-5-----------------||
A|--9-9-9-9-9-9-9-9-5-5-5-5-5-5-5-5-----------------||
E|--7-7-7-7-7-7-7-7-3-3-3-3-3-3-3-3-----------------||

Solo:(w/wah)
E|--------------------------------------------------||
B|--------------------------2-4---------------------||
G|---------------------2--4-----2-4---4-------------||
D|-------------------2--------------2---------------||
A|-2----2-2-2-2-2--0--------------------0-2---------||
E|--------------------------------------------------||

E|----------------------------------||
B|------------2-4-------------------||
G|-----4----4-----2-4-------------4-||
D|---2----------------2-4-4-----2---||
A|-0------------------------2-0-----||
E|----------------------------------||

Finale:            A [guitar one]             B
E|---------------|-------------------------|-------------------------||
B|---------------|-------------------------|-------------------------||
G|---------------|-------------------------|-------------------------||
D|--4-5-6-5-4--4-|-10-10-10-10-10-10-10-10-|--10--4------------------||
A|--4-5-6-5-4--4-|-10-10-10-10-10-10-10-10-|--10--4------------------||
E|--2-3-4-3-2--2-|--8--8--8--8--8--8--8--8-|---8--2------------------||


                   A [guitar two]
                 E|---------------------------------||
                 B|---------------------------------||
                 G|---------------------------------||
                 D|-9--9--9--9--9--9--9--9----------||
                 A|-9--9--9--9--9--9--9--9----------||
                 E|-7--7--7--7--7--7--7--7----------||


Progression:

Intro [guitar one] X2
Riff 1 [guitar one] [guitar two] X2
Riff 2A [guitar one] [guitar two] X7 + Verse 1
Riff 2B [guitar one]
Riff 1 [guitar one] [guitar two] X2 + Chorus
Riff 2A [guitar one] [guitar two] X7 + Verse 2
Riff 2B [guitar one]
Riff 1 [guitar one] [guitar two] X2 + Chorus
Riff 3 [guitar one] [guitar two] X2 + Verse 3
Riff 2A [guitar one] X4
Solo [guitar two]
Riff 2A [guitar one] [guitar two] X7 + Verse 1
Riff 2B [guitar one] [guitar two]
Riff 1 [guitar one] [guitar two] X2 + Chorus
Riff 3 [guitar one] [guitar two] X2 + Verse 3
Finale A [guitar one] [guitar two] X7
Finale B [guitar one] [
Comments