Rainbow Butt Monkeys - Danananana Chords & Tabs

 

Danananana Chords & Tabs

Rainbow Butt Monkeys Chords & Tabs

Version: 1 Type: Bass Tab 0 ratings
1 star 2 stars 3 stars 4 stars 5 stars
comments

Danananana Bass Tab

Danananana(Rainbow Butt Monkeys):Bass Tab

Transcribed by Tommy Koszycki

Standard tuning

^ means a hammer up or down

Note: The notes are right. Just watch out for the timing. You really have
to get a good groove with the drummer

Main Riff :

G  ------------------------------------------------------------------------
D  ------------------------------------------------------------------------
A  -------------5--------------------5---5-^-7--------------5--------------
E  ---0---0----------0---0---0--------------------0----0---------0---0---0-

G -------------------------------------------
D -------------------------------------------
A ----5--------------------5-----------------
E -------3---------0---0------0---0---0------

G  ------------------------------------------------------------------------
D  ------------------------------------------------------------------------
A  --------------------------5-^-7------------------5---------7------------
E  ----0---0---0---5-^-7--------------0---0---0-----0---0------------------

Chorus:

G  ------------------------------------------------------------------------
D  ------------------------------------------------------------------------
A  ------------------7-^-0----------5-^-0----------------------------------
E  ----0---0---0--------------0-----------------0-----2---3----------------
[ Tab from: http://www.guitartabs.cc/tabs/r/rainbow_butt_monkeys/danananana_btab.html ]
Cool Ass shuffle beat, wa-wa section: Again watch out how this is
played.It's pretty fast so I might be missing a note or two. The
progression is correct as far as I know

G  -------------------------------------------------------------------------
D  -------------------------------------------------------------------------
A  ------------------7---7-------7---5---5------5---------------------------
E  ----0---0----0---------------------------------------8---7---------------

Post cool ass shuffle beat section:

G  ----------------------------------------------------------------------
D  ----------------------------------------------------------------------
A  ----------------------------------------------------------------------
E  ------0-------------5-------3-^-5---3-^-5---5------0---------5--------

G ---------------------------------------------------
D -5-5-5^7^5-----------------------------------------
A --------------5^5^7--------------------------------
E -----------------------0--------5-----3-^-5---3-^-5

G  -----------------------------------------------------------------------------|
D  -----------------------------------------------------------------------------|
A  ---------------------------------------------------------------------------- |
E  --5---0--------------5---------------0-0-0-0-0-0-0-0-0-0-0-0-0-0-0-0---------|

G --------------------------------------------|
D --------------------------------------------|
A --------7-7-7-7-7-7-7-7-7-7-7-7-7-------5---|
E ----------------------------------5-6-------|

These are all the parts. Figure out the structure and how to put them
together your self.

==
Comments