Rainbow - Wolf To The Moon Chords & Tabs

 

Wolf To The Moon Chords & Tabs

Rainbow Chords & Tabs

Version: 2 Type: Tab 0 ratings
1 star 2 stars 3 stars 4 stars 5 stars
comments

Wolf To The Moon Tab

                               Wolf to the moon                                 


Guitar
                                                  
E||----------10--13----------------10--13--------|
B||------10------------10------10------------10--|
G||--10--------------------10--------------------|
D||----------------------------------------------|
A||----------------------------------------------|
E||----------------------------------------------|


                                               
----------12--15----------------12--15--------|
------14------------14------14------------14--|
--14--------------------14--------------------|
----------------------------------------------|
----------------------------------------------|
----------------------------------------------|


                                                   
----------10--12--13--12--10----------------------|
------10----------------------13--11--10------11--|
--10--------------------------------------12------|
--------------------------------------------------|
--------------------------------------------------|
--------------------------------------------------|


                                   
----------------------------------|
--10------------------------------|
------12--10--9------10--9--------|
-----------------12---------------|
----------------------------------|
----------------------------------|


                                               
----------10--13----------------10--13--------|
------10------------10------10------------10--|
--10--------------------10--------------------|
----------------------------------------------|
----------------------------------------------|
----------------------------------------------|


                                               
----------12--15----------------12--15--------|
------14------------14------14------------14--|
--14--------------------14--------------------|
----------------------------------------------|
----------------------------------------------|
----------------------------------------------|


                                                   
----------10--12--13--12--10----------------------|
------10----------------------13--11--10------11--|
--10--------------------------------------12------|
--------------------------------------------------|
--------------------------------------------------|
--------------------------------------------------|


                                                                     
----------------------------------|-------------3--5--6--5--3-------|
--10------------------------------|----------3----------------6-5-3-|
------12--10--9------10--9--------|-------3-------------------------|
-----------------12---------------|--5------------------------------|
----------------------------------|---------------------------------|
----------------------------------|---------------------------------|


                                                                       
-------------------------------|--5-----------------------------------|
--5----5--6--5-----------------|-----8--6--5--------------------------|
----------------7--7-----------|--------------7--6--5-----7--5--------|
------------------------7------|-----------------------7--------7--6--|
-------------------------------|--------------------------------------|
-------------------------------|--------------------------------------|


                                                                      
------------------------------------------|--12----------12--12------|
---------------------9--7---------12------|-----------------------15-|
------------------9--------9--13------13--|--------------------------|
--5--6---------9--------------------------|--------------------------|
--------7--11-----------------------------|--------------------------|
------------------------------------------|--------------------------|


                                                              
--12--------12----12----------|--12----10------8--10-------7-|
--------------------------15--|------------------------------|
------------------------------|------------------------------|
------------------------------|------------------------------|
------------------------------|------------------------------|
------------------------------|------------------------------|


                                                            
--8----7------5--7----8------|--7--8--7--5-----5-----------|
-----------------------------|--------------8-----8--------|
-----------------------------|-----------------------------|
-----------------------------|-----------------------------|
-----------------------------|-----------------------------|
-----------------------------|-----------------------------|

[ Tab from: http://www.guitartabs.cc/tabs/r/rainbow/wolf_to_the_moon_tab_ver_2.html ]
                                                            
----------5---5-7-5-8-5--|----5-7-5-----5--5-5---------5---|
------------8------------|--8-------8-5--------8-5---5---5-|
-------------------------|-------------------------7-------|
-------------------------|---------------------------------|
-------------------------|---------------------------------|
-------------------------|---------------------------------|


                                                                    
-----------------------------|------------------|------------------|
-----------------------------|------------------|------------------|
----7-----------5-----5------|------------------|------------------|
-------------7-----7---------|------------------|------------------|
-----------------------------|------------------|------------------|
-----------------------------|------------------|------------------|


                                                
--------------------|--------------13----13----|
--------------------|--------------------------|
--10----------------|--------------------------|
--------------------|--------------------------|
--------------------|--------------------------|
--------------------|--------------------------|


                                                                      
--13----13--10------13------------|----------10--10--12--10--13--10--|
----------------13------13--------|----------------------------------|
----------------------------------|----------------------------------|
----------------------------------|----------------------------------|
----------------------------------|----------------------------------|
----------------------------------|----------------------------------|


                                                                  
-----10-----------10----------------|----------------------------|
--13------13------------13----------|----------------------------|
--------------12----------------12--|------------12----12----12--|
------------------------------------|----------------------------|
------------------------------------|----------------------------|
------------------------------------|----------------------------|


                                                          
--------------------------------------|------------------|
--------------------------------------|------------------|
----12----12----12----12----12----12--|------------------|
--------------------------------------|------------------|
--------------------------------------|------------------|
--------------------------------------|------------------|


                                                                 
-------------------------------------|--------------------------|
-------------------------------------|--------------------------|
--0----0--0--0--0-----------0--3-----|--------------------------|
-------------------3--0--3--------3--|--------------5--0--3--0--|
-------------------------------------|--------------------------|
-------------------------------------|--------------------------|


                                                                    
-------------------------------|-----------------------------------|
-------------------------------|--5--------6-----------------------|
------------------------7------|-----5----------7--5---------3--0--|
--5--0--3----------------------|--------5---------------5----------|
-----------5--0--3-------------|-----------------------------------|
-------------------------------|-----------------------------------|


                                                                      
----------------------------------|----------------------------------|
----------------------------------|-------2-------3-------4-------5--|
--3-0-3-0-3-0-3-0-3-0-3-0-3-0-3-0-|-------2-------4-------5-------6--|
----------------------------------|----------------------------------|
----------------------------------|--0-------0-------0-------0-------|
----------------------------------|----------------------------------|


                                                                      
------------------------------|--------------------------------------|
-------6-------7-------8------|-------10-------11-------12-------13--|
-------7-------8-------9------|--------------------------------------|
------------------------------|--------------------------------------|
--0-------0-------0-----------|--0--------0--------0--------0--------|
------------------------------|--------------------------------------|


                                                     
-----------------------|----------------------------|
-------14--------------|--14--------15--15----14----|
-----------------------|--14--------15--15----14----|
-----------------------|----------------------------|
--0--------------------|----------------------------|
-----------------------|----------------------------|


                                                                             
------12--12----13----15----|-------------------|
------14--14----15----17----|-------------------|
----------------------------|--------------2----|
----------------------------|--------------2----|
----------------------------|-------------------|
----------------------------|-------------------|
Comments