Rainbow - Since Youve Been Gone Chords & Tabs

 

Since Youve Been Gone Chords & Tabs

Rainbow Chords & Tabs

Version: 4 Type: Tab 0 ratings
1 star 2 stars 3 stars 4 stars 5 stars
comments

Since Youve Been Gone Tab

This is my second Tab.

E:-------------------------|-----------------------
B:-------------------------|-----------------------
G:---------5-5--7-7-7--/3-3|--------5--7--3--5-5-5-
D:--3-3-3--5-5--7-7-7--/3-3|-3-3-3--5--7--3--5-5-5-
A:--3-3-3------------------|-3-3-3-----------------
E:-------------------------|-----------------------

[ Tab from: http://www.guitartabs.cc/tabs/r/rainbow/since_youve_been_gone_tab_ver_4.html ]
E:-------------------------|-------------------
B:-------------------------|-------------------
G:---------5-5--7-7-7--/3-3|--------5--7--3--/5
D:--3-3-3--5-5--7-7-7--/3-3|-3-3-3--5--7--3--/5
A:--3-3-3------------------|-3-3-3-------------
E:-------------------------|-------------------

Thats about it really, if you have any idea about how to play the solo please email me at: Simon473@hotmail.com. dont bother sendin hate mail or death threats or anythin coz thats proper bent
Comments