Rainbow - Since Youve Been Gone Chords & Tabs

 

Since Youve Been Gone Chords & Tabs

Rainbow Chords & Tabs

Version: 1 Type: Tab 3 ratings
1 star 2 stars 3 stars 4 stars 5 stars
comments

Since Youve Been Gone Tab

   
#----------------------------------PLEASE NOTE---------------------------------#
#This file is the author's own work and represents their interpretation of the #
#song. You may only use this file for private study, scholarship, or research. #
#------------------------------------------------------------------------------##
From: Simon Chiplin 
Subject: Since you've been gone - Rainbow
Date: Mon, 28 Jun 1993 15:26:02 +0100 (BST)

Very simple, but here it is anyway.....

Since You've Been Gone
by 
Rainbow

The main riff during the chorus goes like this....
[ Tab from: http://www.guitartabs.cc/tabs/r/rainbow/since_youve_been_gone_tab.html ]
  E5          B5          C#5         A5
|-----------|-----------|-----------|--------|
|-----------|-----------|-----------|--------|
|-----------|--4--4-----|--6--6--6--|--2--2--|
|--2--2--2--|--4--4-----|--6--6--6--|--2--2--|
|--2--2--2--|--2--2-----|--4--4--4--|--0--0--|
|--0--0--0--|-----------|-----------|--------|  


  E5          B5 C#5 A5   A5          B5
|-----------|-----------|-----------|--------|
|-----------|-----------|-----------|--------|
|-----------|--4--6--2--|--2--2-----|--4-----|
|--2--2--2--|--4--6--2--|--2--2-----|--4-----|
|--2--2--2--|--2--4--0--|--0--0-----|--2-----|
|--0--0--0--|-----------|-----------|--------|

-------------------------------------------------------------------------      
Comments