Rainbow - Since Youve Been Gone Chords & Tabs

 

Since Youve Been Gone Chords & Tabs

Rainbow Chords & Tabs

Version: 3 Type: Bass Tab 0 ratings
1 star 2 stars 3 stars 4 stars 5 stars
comments

Since Youve Been Gone Bass Tab

Since You've Been Gone by Rainbow
 
This song ROCKS - and I've not been able to find a tab that's spot on- so I did my own!
 
Standard tuning
 
Intro:
 
G|-----------------------------------------------------------------|
D|-----------------------------------------------------------------|
A|---------5-5--7-7-7--3-3----------5-7-3-3-5-5--------------------|
E|---3-3-3-------------------3-3-3---------------------------------|
 
G|-----------------------------------------------------------------|
D|-----------------------------------------------------------------|
A|----------5-5--7-7-7--3-3---------5-7-3-3/5----------------------|
E|---3-3-3-------------------3-3-3---------------------------------|
 
Verse:
 
G|-----------------------------------------------------------------|
D|-----------------------------------------------------------------|
A|---10--10-10--9--9-9--7--7-7--5--5-5--3--3-3--2--2-2--0-0-3-5----| x2
E|-----------------------------------------------------------------|
 
Bridge:
 
G|-----------------------------------------------------------------|
D|---------------------------------------------------7-------------|
A|--6------------------------------------------8-----------8-------|
E|---------------------------------------8-----------------------6-|
      These four walls are closin' in
 
G|-----------------------------------------------------------------|
D|-----------------------------------------------------------------|
A|--------------------------------------3--4--5--------------------|
E|------------------------8---6----5-------------------------------|
    Look at the fix     you've      put   me   in
 
Chorus - repeat 1st part of intro 4 times
 
Solo: (I think it just follows the lead)
    S                                H P                      H P
G|-2-4-----5---------7-----7/9---7--5-7-5----4-------4---5---4-5-4---------------|
D|------5-------5----------------------------------------------------7---10/12---| x2
A|---------------------------------------------------------------------5---------|
E|-------------------------------------------------------------------------------|

G|-----------------------------------------------------------------|
D|-----------------------------------------------------------------|
A|--5-5-5----5-5---------------------------------------------------|
E|-----------------------------------------------------------------|
 
Chorus: (note - UP A STEP)
 
G|-----------------------------------------------------------------|
D|-----------------------------------------------------------------|
A|----------7-7--9-9-9--5-5----------7-9-5-5-7-7-------------------|
E|---5-5-5--------------------5-5-5--------------------------------|
 
G|-----------------------------------------------------------------|
D|-----------------------------------------------------------------|
A|---7-7-7----7-7-0------------------------------------------------|
E|-----------------------------------------------------------------|
 
Outro: same as final chorus under solo to fade.
 
I THINK it's right - it's how I play it and I get no complaints ;o)
[ Tab from: http://www.guitartabs.cc/tabs/r/rainbow/since_youve_been_gone_btab_ver_3.html ]
Comments