Rainbow - Rainbow Eyes Chords & Tabs

 

Rainbow Eyes Chords & Tabs

Rainbow Chords & Tabs

Version: 2 Type: Tab 0 ratings
1 star 2 stars 3 stars 4 stars 5 stars
comments

Rainbow Eyes Tab

   
Standard Tuning

chords are: 
Em - Am/Am6/Am
Em - C - Am
Em - D - C - D

and riff starts like this:
e|--------0-------|---------------|----------------|----------------|
B|------------3---|---------------|----------------|-7---5----------|
G|----------------|-4p3p2----2--4-|-5--------------|----------------|
D|------2---------|-------5-------|----------------|----------------|
A|----------------|---------------|------------(3)-|----------------|
E|-0--------------|---------------|----------------|----------------|

e|--------0-------|---------------|------
B|------------3---|---------------|------
G|----------------|-4p3p2----2--4-|------
D|------2---------|-------5-------|------
A|----------------|---------------|-3----
E|-0--------------|---------------|------

Song Chords:

Verse:
Em - G - D - Am - C - D - Em
Em - G - D - Am - C - D - Em

Chorus (or what is it):
C - D - G
Em - A - D
C - D - G
C - C - Am - Am

Em and solos solos solos


Flute solo (arraned for guitar):

e----|----------------|---------------|-10---------------|----------------|
B----|-------------10-|-12------10-12-|----12--P10-------|-10-------------|
G----|-12----11-12----|---------------|------------12--9-|-------------12-|
D-12-|----------------|---------------|------------------|----------------|
A----|----------------|---------------|------------------|----------------|
E----|----------------|---------------|------------------|----------------|
[ Tab from: http://www.guitartabs.cc/tabs/r/rainbow/rainbow_eyes_tab_ver_2.html ]
    e|----------------|---------------|------------------|----------------|
    B|----------------|---------------|------------------|----------------|
    G|-11--9----------|----9m-9~~-----|----9-11-12--11-9-|-----9m-9~~--11-|
    D|---------12--10-|-9-------------|------------------|-10-------------|
    A|----------------|---------------|------------------|----------------|
    E|----------------|---------------|------------------|----------------|

    e|----------------|---------------|------------------|--------12~~----|
    B|----------------|---------------|------------------|----------------|
    G|-----10-12--/13-|-12-10m10------|---10-12-13--12-10|-12-------------|
    D|-12-------------|---------------|------------------|-----9m---------|
    A|----------------|---------------|------------------|----------------|
    E|----------------|---------------|------------------|----------------|

    e|----------------|---------------|------------------|----------------|
    B|----------------|-------------10|-12p10------------|-10~~-----------|
    G|----9-11-12-11-9|-11---9-11-12--|-------12m12-11-12|----------------|
    D|----------------|----12---------|------------------|----------------|
    A|----------------|---------------|------------------|----------------|
    E|----------------|---------------|------------------|----------------|

    e|----------------|---------------|------------------|----------------|
    B|----------------|---------------|------------------|----------------|
    G|-12--11--9--12--|--10-----------|-9-------7--------|-5--------------|
    D|----------------|-----------(10)|------------------|----------------|
    A|----------------|---------------|------------------|----------------|
    E|----------------|---------------|------------------|----------------|
                                                Em and verse starts here
Comments