Rainbow - Maybe Next Time Chords & Tabs

 

Maybe Next Time Chords & Tabs

Rainbow Chords & Tabs

Version: 1 Type: Bass Tab 0 ratings
1 star 2 stars 3 stars 4 stars 5 stars
comments

Maybe Next Time Bass Tab

                                Maybe Next Time                                 


                                                                         Rainbow
BASS



                                                           
G||-----------|---------------------|---------------------|
D||-----------|---------------------|---------------------|
A||-----------|--0------0-----------|---------------------|
E||--0--------|------------3--------|--1------1--0--------|


                                                                    
---------------------|-----------------0----|----------------------|
--0------0-----------|----------------------|----------------------|
------------3--------|--2------0------------|--3---------3---------|
---------------------|------------3---------|---------3---------3--|


                                                                       
----------------------|---------------------|-------------------------|
------------2---------|---------------------|-------------------3--2--|
---------2------------|--0------0-----------|-----------------3-------|
--0----------------4--|------------3--------|--1------1-1-1-----------|


                                                                           
------------------------|----------------------|--------------------------|
--0------0---0----------|----------------------|--------------------0-----|
-----------3--------3-2-|--0------0---0--------|-----------0-2--2-3-------|
------------------------|-----------3----------|--3------3-------------3--|


                                                                   
----------------------|---------------------|---------------------|
----------------------|---------------------|---------------------|
--0------3-5-7--------|--0------0-----------|---------------------|
----------------------|------------3--------|--1------1--0--------|


                                                                    
---------------------|-----------------0----|----------------------|
--0------0-----------|----------------------|----------------------|
------------3--------|--2------0------------|--3---------3---------|
---------------------|------------3---------|---------3---------3--|


                                                                       
----------------------|---------------------|-------------------------|
------------2---------|---------------------|-------------------3--2--|
---------2------------|--0------0-----------|-----------------3-------|
--0----------------4--|------------3--------|--1------1-1-1-----------|


                                                                        
------------------------|----------------------|-----------------------|
--0------0---0----------|----------------------|-----------------2-----|
-----------3--------3-2-|--0------0---0--------|-----------------------|
------------------------|-----------3----------|--3------3--0-------4--|


                                                                      
------------------------|---------------------|-------------------0--|
---------2-0------------|--0------------0--2--|--3----------2--3-----|
--0----------4---4-4----|---------------------|----------------------|
------------------------|---------------------|----------------------|


                                                              
--2----------------|-------------------|---------------------|
-------------------|-------------------|--0------------0--2--|
-------------------|--0----------------|---------------------|
-------------------|-------------------|---------------------|


                                                                 
-------------------0--|--2------------------|-------------------|
--3----------2--3-----|---------------------|-------------------|
----------------------|---------------0--0--|--0----------------|
----------------------|---------------------|-------------------|

[ Tab from: http://www.guitartabs.cc/tabs/r/rainbow/maybe_next_time_btab.html ]
                                                            
-------------------|-------------------|-------------------|
-------------------|--0----------------|--1----------------|
--4----------------|-------------------|-------------------|
-------------------|-------------------|-------------------|


                                                                  
--------------------|---------------------|----------------------|
--2--------2--------|---------------------|----------------------|
--------------------|--2--------2----0----|--------------0--2----|
--------------------|---------------------|--4--------4----------|


                                                               
---------------------|--------------------|-------------------|
--3--------3----2----|--0-----------------|-------------------|
---------------------|-----------3--------|-------------------|
---------------------|--------------------|--0----------------|


                                                             
------------------|--------------------|--------------------|
------------------|--------------------|--------------------|
------------------|--0------------0----|--------------------|
------------------|--------------------|--3------------3----|


                                                              
--------------------|-------------------|--------------------|
--------------------|-------------------|--0------------0----|
--------------------|-------------------|--------------------|
--1------------1----|--0----------------|--------------------|


                                                                    
-------------------|---------------------|-----0-----0-----0-------|
-------------------|---------------------|-------------------------|
--3----------------|--2------------2--0--|-------------------------|
-------------------|---------------------|--3-----3-----3-----3----|


                                                               
--------------------|--------------------|--------------------|
--------------------|--------------------|--------------------|
--3------------3----|--3-----------------|--------------------|
--------------------|---------------3----|--0------------0----|


                                                                  
-----------------------|--------------------|--------------------|
-----------------------|--------------------|--------------------|
-----------------0--2--|--0------------0----|--------------------|
--0--------3--4--------|--------------------|--3------------3----|


                                                                   
----------------------|---------------------|---------------------|
----------------------|---------------------|--0------------0-----|
----------------------|-----------8----7----|------------------3--|
--1------1--1----1----|--1------------------|---------------------|


                                                                    
----------------------|---------------------|----------------------|
--0-------------------|---------------------|----------------------|
-------------2--3--2--|--0------------0-----|--0------0--0----0----|
----------------------|------------------3--|----------------------|


                                                              
--------------------|--------------------|-------------------|
--------------------|--------------------|-------------------|
--------------------|--------------------|--0----------------|
--3------------3----|--0------------3----|-------------------|


                                                                        
----------------------|------------------------|-----------------------|
------------0----2----|--0------0---0----------|-----------------------|
--4------4------------|-----------3--------3-2-|--0------0---0------0--|
----------------------|------------------------|-----------3-----------|


                                                               
----------------------|-------------------|------------------||
-----------------2----|-------------------|------------------||
----------------------|--0----------------|------------------||
--3------3--0---------|-------------------|------------------||
Comments