Rainbow - Man On The Silver Mountain Chords & Tabs

 

Man On The Silver Mountain Chords & Tabs

Rainbow Chords & Tabs

Version: 2 Type: Tab 0 ratings
1 star 2 stars 3 stars 4 stars 5 stars
comments

Man On The Silver Mountain Tab

----------------------------------------------------------------------     
----------------------------------------------------------------------
----------------------------------------------------------------------
------------------3------------------5--3----------------3------------
---------5--3--5-----3--5---5--3--5-------------5--3--5-----3--5------  
-------5------------------------------------5------------------------- 
[ Tab from: http://www.guitartabs.cc/tabs/r/rainbow/man_on_the_silver_mountain_tab_ver_2.html ]
----------------------------------------------------------------------   
----------------------------------------------------------------------
----------------------------------------------------------------------
----------------------------------------------------------------------
--------5--3--1-------------------------------------------------------    
----------------------------------------------------------------------




Tab by Chris B
devilmyarse@hotmail.com
Comments