Rainbow - Kill The King Chords & Tabs

 

Kill The King Chords & Tabs

Rainbow Chords & Tabs

Version: 2 Type: Tab 0 ratings
1 star 2 stars 3 stars 4 stars 5 stars
comments

Kill The King Tab

this is the main riff

e-------------------------
b-------------------------
g-0-0--3-5-3--5----3-0----
d-0-0--3-5-3--5----3-0-3--
a----------------------3--
e-------------------------
[ Tab from: http://www.guitartabs.cc/tabs/r/rainbow/kill_the_king_tab_ver_2.html ]
e---------------------
b---------------------
g-0-0--3-5-3--3---5---
d-0-0--3-5-3--3-3-5---
a---------------3-----
e---------------------

i just worked this out so it may not be right but it sounds right.
Comments