Rainbow - Ariel Chords & Tabs

 

Ariel Chords & Tabs

Rainbow Chords & Tabs

Version: 1 Type: Tab 0 ratings
1 star 2 stars 3 stars 4 stars 5 stars
comments

Ariel Tab

                                                                                                Ariel                                                                                                   


Ritchie Blackmore
                                                                                                                                                                           
E||------------------|------------------|------------------------|------------------------|------------------------|------------------------|-----------------------------|
B||------------------|------------------|------------------------|------------------------|------------------------|------------------------|-----------------------------|
G||------------------|------------------|------------------------|------------------------|------------------------|------------------------|----4-5---2-4----------------|
D||------------------|------------------|----4-5---2-4-----------|----4-5---2-4-----------|----4-5---2-4-----------|----4-5---2-4-----------|--------------------1-2-4----|
A||------------------|------------------|------------------------|------------------------|------------------------|------------------------|--2-----2-------2-3----------|
E||------------------|------------------|--2-----2---------------|--2-----2---------------|--2-----2---------------|--2-----2---------------|-----------------------------|


                                                                                                                                                                                     
------------------------------|-----------------------------|----------------------------------|-------------------|------------------|------0--------------|------0----------------|
------------------------------|-----------------------------|----------------------------------|-------------------|------------------|---------------------|-----------------------|
----4-5---2-4-------------2---|----4-5---2-4----------------|----------------------------------|-------------------|------------------|---------------------|-----------------------|
--------------------1-2-4-----|--------------------1-2-4----|------1-2-4-5-4-2-1-2-1-----------|-------------------|------------------|---------------------|-----------------------|
--2-----2-------2-3-----------|--2-----2-------2-3----------|--2-3-------------------3-2-3-0-2-|-------------------|------------------|---------------------|-------------3----2----|
------------------------------|-----------------------------|----------------------------------|--0----------------|------------------|--0-0----------------|--0-0------------------|


                                                                                                                                                                                             
------0--------------|------0------------------------|-------------------|------0----------------|--------------------|-------------------|-------------------|-----------------------------|
---------------------|-------------------------------|-------------------|-----------------------|--------------------|-------------------|-------------------|-----------------------------|
---------------------|---------14b---14-12----12~----|-------------------|-----------------------|--------------------|-------------------|-------------------|-----------------------------|
---------------------|---------------------14--------|-------------------|-----------------------|--------------------|-------------------|--3----------------|--------------------6-7-9----|
---------------------|-------------------------------|-------------------|-------------3----2----|--------------------|-------------------|-------------------|----7-8---5-7---7-8----------|
--0-0----------------|--0-0--------------------------|--0----------------|--0-0------------------|--0--------1--------|--0----------------|-------------------|--0-----0--------------------|


                                                                                                                                                                                           
------------------------------|-----------------------------|-----------------------------------|---------------------|---------------------|--------------------|------------------------|
------------------------------|-----------------------------|-----------------------------------|---------------------|---------------------|--------------------|------------------------|
--------------------------7---|-----------------------------|-----------------------------------|----------------5----|---------------------|--------------------|-----------12-12/--x----|
--------------------6-7-9-----|--------------------6-7-9----|------6-7-9-10-9-7-6-7-6-----------|---------------------|---------------------|--------------------|-----------12-12/--x----|
----7-8---5-7---7-8-----------|----7-8---5-7---7-8----------|--7-8--------------------8-7-8-5-7-|-----------3---------|-----------3----2----|--------------------|------------------------|
--0-----0---------------------|--0-----0--------------------|-----------------------------------|--0------------------|--0------------------|--0--------1--------|--0---------------------|


                                                                                                                                                                                                
--------------------|---------------------|--------------------|-----------0-------------|-------------------|-------------------|------------------------------|------------------------------|
--------------------|---------------------|--------------------|-------------0-0---------|-------------------|-------------------|------------------------------|------------------------------|
--------------------|---------------------|--------------------|-------------------------|-------------------|-------------------|--------------------------7---|-----------------2r--2--2h0h2-|
--------------------|---------------------|--------------------|-----------------5-4-2---|-------------------|--3----------------|--------------------6-7-9-----|------------------------------|
-----------3--------|-----------3----2----|--------------------|-------------------------|--0----------------|-------------------|----7-8---5-7---7-8-----------|----7-8---5-7-----------------|
--0-----------------|--0------------------|--0--------1--------|--0----------------------|-------------------|-------------------|--0-----0---------------------|--0-----0---------------------|


                                                                                                                                                                                       
-------------------|--------------------|-------------------|-------------------|----------|-----------------------------|------------------------------|-----------------------------|
-------------------|--------------------|-------------------|-------------------|----------|-----------------------------|------------------------------|-----------------------------|
-------------------|--5-----------------|-------------------|-------------------|----------|----4-5---2-4----------------|----4-5---2-4-------------2---|----4-5---2-4----------------|
-------------------|-----------3--------|-------------------|--5----------------|----------|--------------------1-2-4----|--------------------1-2-4-----|--------------------1-2-4----|
--0----------------|--------------------|--3----------------|--5----------------|----------|--2-----2-------2-3----------|--2-----2-------2-3-----------|--2-----2-------2-3----------|
-------------------|--------------------|-------------------|--3----------------|----------|-----------------------------|------------------------------|-----------------------------|


                                                                                                                                                                          
----------------------------------|-------------------------|------------------------|--------------------------|---------------------------|----------------------------|
----------------------------------|-------------------------|------------------------|--------------------------|---------------------------|----------------------------|
----------------------------------|--9/12~----------11/-9-9-|--9~-----------9--11-11/|--12/-16~---------14/-12~-|----12/--11-9-9---9-8---5--|--4--4--4/---9----11--12-12/|
------1-2-4-5-4-2-1-2-1-----------|-------------------------|------------------------|--------------------------|---------------------------|----------------------------|
--2-3-------------------3-2-3-0-2-|-------------------------|------------------------|--------------------------|---------------------------|----------------------------|
----------------------------------|-------------------------|------------------------|--------------------------|---------------------------|----------------------------|

[ Tab from: http://www.guitartabs.cc/tabs/r/rainbow/ariel_tab.html ]
                                                                                                                                                                                     
----------12-14-15~---14--------|------------------15--17-17/|--19~------------------|--8--7--5--8--7--5--8--7--5--8--7--5--|--8~-----10--10~-----12-12~|------0-12/--0-8---12------|
--------------------------17-15/|----17~-------17------------|------------18/---x----|--------------------------------------|---------------------------|----------------------12~--|
--16~---------------------------|----------------------------|------------18/---x----|--------------------------------------|---------------------------|---------------------------|
--------------------------------|----------------------------|-----------------------|--------------------------------------|---------------------------|---------------------------|
--------------------------------|----------------------------|-----------------------|--------------------------------------|---------------------------|---------------------------|
--------------------------------|----------------------------|-----------------------|--------------------------------------|---------------------------|---------------------------|


                                                                                                                                                                                
--0-------------------|-------------------|--------------------|-------------------|-------------------|----------|-----------------------------|------------------------------|
----------------------|-------------------|--------------------|-------------------|-------------------|----------|-----------------------------|------------------------------|
-------12/--x---------|-------------------|--5-----------------|-------------------|-------------------|----------|----4-5---2-4----------------|----4-5---2-4-------------2---|
-------12/--x---------|-------------------|-----------3--------|-------------------|--5----------------|----------|--------------------1-2-4----|--------------------1-2-4-----|
----------------------|--0----------------|--------------------|--3----------------|--5----------------|----------|--2-----2-------2-3----------|--2-----2-------2-3-----------|
----------------------|-------------------|--------------------|-------------------|--3----------------|----------|-----------------------------|------------------------------|


                                                                                                                                                                                           
-----------------------------|------------------------------|-----------------------------|------------------------------|-----------------------------|----------------------------------|
-----------------------------|------------------------------|-----------------------------|------------------------------|-----------------------------|----------------------------------|
----4-5---2-4----------------|----4-5---2-4-------------2---|----4-5---2-4----------------|----4-5---2-4-------------2---|----4-5---2-4----------------|----------------------------------|
--------------------1-2-4----|--------------------1-2-4-----|--------------------1-2-4----|--------------------1-2-4-----|--------------------1-2-4----|------1-2-4-5-4-2-1-2-1-----------|
--2-----2-------2-3----------|--2-----2-------2-3-----------|--2-----2-------2-3----------|--2-----2-------2-3-----------|--2-----2-------2-3----------|--2-3-------------------3-2-3-0-2-|
-----------------------------|------------------------------|-----------------------------|------------------------------|-----------------------------|----------------------------------|


                                                                                                                                                                              
-------------------|--------------------|------------------------------|----------------------------|-------------------|--------------------|-------------------|-----------|
-------------------|--------------------|------------------------------|----------------------------|-------------------|--------------------|-------------------|-----------|
--2----------------|--10----------------|--------------------------7---|----------------9-9--9-9----|--2----------------|--5-----------------|--5----------------|-----------|
--2----------------|--10----------------|--------------------6-7-9-----|----------------9-9--9-9----|--2----------------|-----------3--------|--5----------------|--5--------|
--0----------------|--8-----------------|----7-8---5-7---7-8-----------|----7-8---5-7---------------|--0----------------|--------------------|--3----------------|--5--------|
-------------------|--------------------|--0-----0---------------------|--0-----0-------------------|-------------------|--------------------|-------------------|--3--------|


                                                                                                                                                                                                       
------------------------------3-5-|--1----------------|----------------------|--3----------------|------------------------------3-5-|--1----1----1----1----|----------------------|--3----------------|
------------------------3-5-6-----|--1----------------|--5----5----5----5----|--3----------------|------------------------3-5-6-----|--1----1----1----1----|--5----5----5----5----|--3----------------|
------------------2-4-5-----------|--2----------------|--5----5----5----5----|--4----------------|------------------2-4-5-----------|--2----2----2----2----|--5----5----5----5----|--4----------------|
------------2-3-5-----------------|--3----------------|--5----5----5----5----|--5----------------|------------2-3-5-----------------|--3----3----3----3----|--5----5----5----5----|--5----------------|
------2-3-5-----------------------|--3----------------|--3----3----3----3----|--5----------------|------2-3-5-----------------------|--3----3----3----3----|--3----3----3----3----|--5----------------|
--3-5-----------------------------|--1----------------|----------------------|--3----------------|--3-5-----------------------------|--1----1----1----1----|----------------------|--3----------------|


                                                                                                                                                                                                  
------------------|------------------|------------------|--13~-------13b13-10----10~---|--10----10----10-------10------------------|------3--5--6--6--6--6--6-5h6h5h6h5/3/|--5-------------------|
------------------|------------------|------------------|---------------------13-------|-----13b---13-------10----10---------------|--------------------------------------|---------6-5----------|
------------------|------------------|------------------|------------------------------|-----------------12b---------10--12~-------|--------------------------------------|-------------7~-------|
------------------|------------------|------------------|------------------------------|-------------------------------------------|--------------------------------------|----------------------|
------------------|------------------|------------------|------------------------------|-------------------------------------------|--------------------------------------|----------------------|
------------------|------------------|------------------|------------------------------|-------------------------------------------|--------------------------------------|----------------------|


                                                                                                                                                                     
--------3-5-6-6--6--6--6-5--3/|--5-------------------|--10-------10-------10-------10-------10----------|--10-------10----------10----------10-12-13-12h13h12h13h12-|
------3-----------------------|---------6-5----------|-----11-------11-------11-------11-------11----11-|-----10-------10----10----10----10-------------------------|
------------------------------|-------------7~-------|--------12-------12-------12-------12-------12----|--------10-------10----------10----------------------------|
------------------------------|----------------------|--------------------------------------------------|-----------------------------------------------------------|
------------------------------|----------------------|--------------------------------------------------|-----------------------------------------------------------|
------------------------------|----------------------|--------------------------------------------------|-----------------------------------------------------------|


                                                                                                                                                                                         
-------------------------------------|-----------------------------------|--10-------10-------10-------10-------10----------|--10-------10----------10----------10-12-13-12h13h12h13h12-|
----13b---13b--13b13b13b13r13--11h13h|--11h13h11-10----------------------|-----11-------11-------11-------11-------11----11-|-----10-------10----10----10----10-------------------------|
-------------------------------------|----------------12r12-10-----------|--------12-------12-------12-------12-------12----|--------10-------10----------10----------------------------|
-------------------------------------|-------------------------12~-------|--------------------------------------------------|-----------------------------------------------------------|
-------------------------------------|-----------------------------------|--------------------------------------------------|-----------------------------------------------------------|
-------------------------------------|-----------------------------------|--------------------------------------------------|-----------------------------------------------------------|


                                                                           
-------------------------------------|-----------------------------------||
----13b---13b--13b13b13b13r13--11h13h|--11h13h11-10----------------------||
-------------------------------------|----------------12r12-10-----------||
-------------------------------------|-------------------------12~-------||
-------------------------------------|-----------------------------------||
-------------------------------------|-----------------------------------||


Comments