Raimundos - Eu Quero Ver O Oco Chords & Tabs

 

Eu Quero Ver O Oco Chords & Tabs

Raimundos Chords & Tabs

Version: 2 Type: Bass Tab 0 ratings
1 star 2 stars 3 stars 4 stars 5 stars
comments

Eu Quero Ver O Oco Bass Tab

   
Song Title: Eu quero ver o oco
Artist: Raimundos
----------------------------------------------

Raimundos is a hard core Brazilian band.
From the album "Lav t novo"
intro
G ---------------
D ---------------
A ---------------
E -0-0-0-1-0-1-0--
[ Tab from: http://www.guitartabs.cc/tabs/r/raimundos/eu_quero_ver_o_oco_btab_ver_2.html ]
begining
G -------------------------------
D -------------------------------
A -------------------------------
E -0-0-1-0-1-1-2-2-1-0-0-2-1-0-0-

Chorus
G ----------------
D ----------------
A -----0-0-2-3-3--
E -3-3------------

I hope many brazilians access this page!
any corrections, mail me at borges@e-net.com.br

Submitted by:  Lucas Borges de Carvalho (borges@e-net.com.br)
Comments