Raimundos - Eu Quero Ver O Oco Chords & Tabs

 

Eu Quero Ver O Oco Chords & Tabs

Raimundos Chords & Tabs

Version: 1 Type: Bass Tab 0 ratings
1 star 2 stars 3 stars 4 stars 5 stars
comments

Eu Quero Ver O Oco Bass Tab

Song:Quero ver o oco
Artist:Raimundos
Album:Lavo tá novo
Tabbed by Freak
faget@jedi.mailbr.com.br

Intro
G|--------------------------------|----------------------
D|*------------------------------*|----------------------
A|*-2-2--2-3-2-3-2--2--2-3-2-3-2-*|--2---2-3-------------
E|--------------------------------|----------------------

pre-verse
G|---------------------------|----------------------------
D|-5-7--------------5-7-----*|--5-7---------------5-7-----
A|-----8-777-5-7--7-----8-7-*|------8-777-5-7-5-7-----8-7-
E|---------------------------|----------------------------

G|----------------------------------|-----------------------------------|-----
D|-5-7---------------5-7------5-7---|*---------------------------------*|-----
A|-----8-777-5-7-5-7-----8-7------8-|*---------2-2-3-2---------2-2-3-2-*|-----
E|----------------------------------|--2-2-3-5---------2-2-3-5----------|-0---
[ Tab from: http://www.guitartabs.cc/tabs/r/raimundos/eu_quero_ver_o_oco_btab.html ]
Verse
G|----------------------------------------------------------------------
D|-5-7-------------4-5-----4-5------------------------------------------
A|-----8-777-5-7-7-----5-7-----5-777-5-7-5-7/--101010-888---------------
E|----------------------------------------------------------------------

G|----------------------------------------------------------------------
D|-----------4-5-----4-5------------------------------------------------
A|-777-5-7-7-----5-7-----5-777-5-7-5-7/--101010-888---------------------
E|----------------------------------------------------------------------

Pre-Chorus
G|-----------------|
D|-----------------|
A|---------2-2-3-2-|
E|-2-2-3-5---------|

Chorus

G|------------------|
D|------------------|
A|--55555-5---------|
E|----------22233-5-|

Bridge
G|----------------------------------------------|
D|----------------------------------------------|
A|-2-2-2-3-2-3-2--2-2-3-2-3-22-2-3-2-3-2--22-3--|
E|----------------------------------------------|

Solo
G|---------------------------------------------------
D|---------------------------------------------------
A|-2-2-2-3-2-3-2-2-2-3-2-3-2-------------------------
E|---------------------------3-3-3-0-3-5-0--0-5-00---


Listen the song to get the order...
Any questions/corrections/suggestions? Mail me.
faget@jedi.mailbr.com.br 

Comments