Raging Speedhorn - The Hate Song Chords & Tabs

 

The Hate Song Chords & Tabs

Raging Speedhorn Chords & Tabs

Version: 1 Type: Tab 0 ratings
1 star 2 stars 3 stars 4 stars 5 stars
comments

The Hate Song Tab

   
Dead easy this, just pile on the distortion

Intro/Verse
E|---------------|
B|---------------|
G|---------------|
D|-5-3-0-3-0-0-3-|
A|-5-3-0-3-0-0-3-|
D|-5-3-0-3-0-0-3-|

Break
E|---------------------------------|
B|---------------------------------|
G|---------------------------------|
D|-9-9-9-9-9-9-9-9-9-9-9-9-9-9-9-9-|
A|-7-7-7-7-7-7-7-7-7-7-7-7-7-7-7-7-|
D|---------------------------------|

Chorus Lead In
E|---------------------------------|
B|---------------------------------|
G|---------------------------------|
D|-9-9-9-8-8-8-7-7-7-6-6-6-5-5-5-5-|
A|-7-7-7-6-6-6-5-5-5-4-4-4-3-3-3-3-|
D|---------------------------------|
[ Tab from: http://www.guitartabs.cc/tabs/r/raging_speedhorn/the_hate_song_tab.html ]
Chorus
E|---------------------------------------------------|
B|---------------------------------------------------|
G|---------------------------------------------------|
D|-0--3--5--6--5--3--9-9-9-8-8-8-7-7-7-6-6-6-5-5-5-5-|
A|-0--3--5--6--5--3--7-7-7-6-6-6-5-5-5-4-4-4-3-3-3-3-|
D|-0--3--5--6--5--3----------------------------------|

Chorus End
E|----------------------|
B|----------------------| First chorus donít
D|-0--3--5--6--5--3-(0)-| play the last open
A|-0--3--5--6--5--3ó(0)-| string chord
D|-0--3--5--6--5--3-(0)-|

Intro/Verse X8
Break
Intro/Verse X4
Break
Intro/Verse X8

Lead In
Chorus X3
Chorus End

Intro/Verse X8
Break
Intro/Verse X4
Break
Intro/Verse X8

Lead In
Chorus X3
Chorus End (inc. the open string chord)
Comments