Raging Speedhorn - Redweed Chords & Tabs

 

Redweed Chords & Tabs

Raging Speedhorn Chords & Tabs

Version: 2 Type: Tab 0 ratings
1 star 2 stars 3 stars 4 stars 5 stars
comments

Redweed Tab

   
Raging Speedhorn,redweed.
Tabbed by mark kerry,roger.kerry@which.net.
  
Band: Raging Speedhorn
Song: Redweed
Album: Raging Speedhorn
Tuning: low to high - c# g# c# f# a# d#
Transcribed by Mark Kerry
e-mail: roger.kerry@which.net

key

/ = slide up
\ = slide down
h = hammer on
b = bend
[ Tab from: http://www.guitartabs.cc/tabs/r/raging_speedhorn/redweed_tab_ver_2.html ]
riff1 intro/verse (guitar 1&2)
|------------------------------------------------|
|------------------------------------------------|
|------------------------------------------------|
|------------------------------------------------|
|--3-3-3-0--3-3-3-0--4-/-6--3--------------------|
|--3-3-3-0--3-3-3-0--4-/-6--3--------------------|
                                                  
riff2 interlude (guitar 1&2)
|------------------------------------------------|
|------------------------------------------------|
|------------------------------------------------|
|------------------------------------------------|
|----0h3-4h5----0h3-4h5----0h3-4h5-----4-/-6--3--|
|--0----------0----------0----------0--4-/-6--3--|
                                                   
riff3 bridge (guiatr 1&2)                 fill 1
|------------------------------------|  |--------|  
|------------------------------------|  |--------|  
|------------------------------------|  |--------|  
|------------------------------------|  |--------| 
|--0-3-4-5-5-3-5---0-3-4-5-5-8-5-----|  |---0----|  
|--0-3-4-5-5-3-5---0-3-4-5-5-8-5-----|  |---0----| 
                                                  
riff4 bridge variation (guitar 1&2)
|------------------------------------------------|
|------------------------------------------------|
|------------------------------------------------|
|------------------------------------------------|
|------------------------------------------------|
|--0-3-0-3b--0-3-0-3b----------------------------|
                                                  
riff5 outro (guitar 1&2)
|------------------------------------------------|
|------------------------------------------------|
|------------------------------------------------|
|------------------------------------------------|
|--0-3-4-5\--------------------------------------|
|--0-3-4-5\--------------------------------------|

riff1x12
riff2x4
riff1x8
riff2x4
feedback
bass
riff3x6
riff4x2
riff3x4
riff4x2
riffx1 
:: Ultimate Guitar Archive :: 
http://www.ultimate-guitar.com 

Comments