Raging Speedhorn - Redweed Chords & Tabs

 

Redweed Chords & Tabs

Raging Speedhorn Chords & Tabs

Version: 1 Type: Tab 0 ratings
1 star 2 stars 3 stars 4 stars 5 stars
comments

Redweed Tab

   
artist: raging speedhorn
song: redweed
album: raging speedhorn
tabbed by: nick olorenshaw, colchester (philup68@hotmail.com)

----------------------------------------------------------------

Drop low [e] to a [d]  


opening riff:
     
e:------------------------------------------------------
b:------------------------------------------------------
g:------------------------------------------------------
d:--3-3-3-0--3-3-3-0--5h6-5---3-3-3-0--3-3-3-0--5h6-5---
a:--3-3-3-0--3-3-3-0--5h6-5---3-3-3-0--3-3-3-0--5h6-5---
d:--3-3-3-0--3-3-3-0--5h6-5---3-3-3-0--3-3-3-0--5h6-5---

riff 2:
[ Tab from: http://www.guitartabs.cc/tabs/r/raging_speedhorn/redweed_tab.html ]
e:--------------------------------------
b:--------------------------------------
g:--------------------------------------
d:--------------------------------------
a:---------3h5------3h5-----3h5---------
d:--0--3h5----0--3h5---0-3h5---0--3h5-3-

repeat opening riff

repeat riff 2

riff 3: (played by bass)

e:--------------------------------
b:--------------------------------
g:--------------------------------
d:--------------------------------
a:--------------------------------
d:-0-3-4-5-5-3-5--0-3-4-5-5-8-5---

riff 4:
e:--------------------------------
b:--------------------------------
g:--------------------------------
d:-0-3-4-5-5-3-5--0-3-4-5-5-8-5---
a:-0-3-4-5-5-3-5--0-3-4-5-5-8-5---
d:-0-3-4-5-5-3-5--0-3-4-5-5-8-5---

riff 5:

e:---------------------
b:---------------------
g:---------------------
d:--0-3-0-3---0-3-0-3--
a:--0-3-0-3---0-3-0-3--
d:--0-3-0-3---0-3-0-3--

repeat riff 4

END
---------------------------------------------------------------

any comments, questions, corrections or donations to philup68@hotmail.com

 
Comments