Raging Speedhorn - Redweed Chords & Tabs

 

Redweed Chords & Tabs

Raging Speedhorn Chords & Tabs

Version: 2 Type: Bass Tab 0 ratings
1 star 2 stars 3 stars 4 stars 5 stars
comments

Redweed Bass Tab

RAGING SPEEDHORN

REDWEED

HaTr3d@antisocial.com
[ Tab from: http://www.guitartabs.cc/tabs/r/raging_speedhorn/redweed_btab_ver_2.html ]
G-----------|   G-----------
D-----------|   D-----------
A---0-3-5-6-|x3 A-----------
E-0---------|   E-0-3h5p3-0-

funky middle riff
G----------------------------
D----------------------------
A------------------------3---
E-0-3-4-55-3-5--0-3-4-55---5-
Comments