Rage Against The Machine - Year Of The Boomerang Chords & Tabs

 

Year Of The Boomerang Chords & Tabs

Rage Against The Machine Chords & Tabs

Version: 2 Type: Bass Tab 0 ratings
1 star 2 stars 3 stars 4 stars 5 stars
comments

Year Of The Boomerang Bass Tab

This is the bass tab. for Rage Against the Machine's "Year of tha Boomerang"
on the Evil Empire Album.


Type: Bass tablature
Band: Rage Against The Machine
Song: Year of tha boomerang
CD:   Evil Empire

By kdc33@juno.com  
This is my first tabbing so bare with any wrong notes.
Dropped D tuning
  
                Riff 1      (x12)             
G:-------------|----------------|-------------|------------------|
D:----Guitar---|----------------|--Guitar-----| --Riff-1--(x12)--| 
A:----Intro----|----------------|----Riff-----|------------------|
D:-------------| 2 -12h13--0-2--|-------------|------------------|

  Fill 1
G:-------------------------|
D:-------------------------|
A:-------------------------|
D: 44--2-44--2-44--2-44--2-|
[ Tab from: http://www.guitartabs.cc/tabs/r/rage_against_the_machine/year_of_the_boomerang_btab_ver_2.html ]
  Riff 2                                  (x4)
G:-------------------------------------------|--------------|
D:*-----------------------------------------*| -Guitar------|
A:*------0---------0---------0---------0----*|----Riff------|
D:- 4444----4-4444----4-4444----4-4442----4--|--------------|

G:-----------------|--------------|---------------|
D: Riff-1--(x11) --|--------------|--Riff-1-(x12)-|
A:-----------------|--------------|---------------|
D:-----------------|--2--r--r--r--|---------------|

G:-----------------|
D:-Riff-2--(x4)----|
A:-----------------|
D:-----------------|
  
                                          Outro    (x8)                    (X8) 
G:------------|-------------|---------|
D:------------|-Guitar------|--Outro--|
A:------0-----|-----Riff----|---------|
D:-4442----3--|-------------|---------|
Comments