Rage Against The Machine - Without A Face Chords & Tabs

 

Without A Face Chords & Tabs

Rage Against The Machine Chords & Tabs

Version: 3 Type: Tab 0 ratings
1 star 2 stars 3 stars 4 stars 5 stars
comments

Without A Face Tab

Song: Without a Face
Artist: Rage Against the Machine
Album: Evil Empire

Tuning: Standard

================================


Intro/Verse: *Play rapidly; stop at 0:39 (just before the chorus)

e------------------------------------------------------------
g---3-3-3-3-3-3-3-3-3-3-3-3-3-3-3-3-3-3-3-3-3-3-3-3-3-3-3----
b------------------------------------------------------------
d------------------------------------------------------------
a------------------------------------------------------------
e------------------------------------------------------------

"When I tried to Cross the White Wall."


Chorus:

"Walk unseen past tha grapes and tha gates. Born without a face!
One motive no hope, uh. Born without a face!
[ Tab from: http://www.guitartabs.cc/tabs/r/rage_against_the_machine/without_a_face_tab_ver_3.html ]
e------------------------------------------------------------
g------------------------------------------------------------
b--------------------------------2---------------------------
d---4---2--4--2--4--2--4--2--4--------------(repeat 3x)------
a---2---0--2--0--2--0--2--0--2-------------------------------
e------------------------------------------------------------


(Verse)


(Chorus)


(I don't know the solo)


Ending:(2:52) "You say, fortify, reaction..."

e------------------------------------------------------------
g------------------------------------------------------------
b------------------------------------------------------------
d------------------------------------------------------------
a------------------------------------------------------------
e---3---1----(repeat about 40x)------3-(bend)-------3-----3--

*Tom Morello probably uses a pedal or some device to get that awesome sound during the chorus.
Comments