Rage Against The Machine - Wind Below Chords & Tabs

 

Wind Below Chords & Tabs

Rage Against The Machine Chords & Tabs

Version: 2 Type: Bass Tab 0 ratings
1 star 2 stars 3 stars 4 stars 5 stars
comments

Wind Below Bass Tab

   
Wind Below by Rage Against The Machine
tabbed by r.allen.canterbury

Standard Tuning (E,A,D,G)

G:------------------------------|
D:--Guitar-Effects-|-Drum-Fill--|
A:-----------------|------------|
E:------------------------------|

                                                       1,2,3
   Chorus Riff                                        |~~~~~~~~~~~~~~~~~~
G:-----------------------------------------------------------------------|
D:*--9-7-9-10-9-7------------9------------------------------------------*|
A:*-----------------9--8-7-----7-----7---------4------------------------*|
E:---------------------------------9-----7-5-7---7-5-0--X-X-X---X--X-X---|
    *distortion on


   4
  |~~~~~~~~~~~~~~  Verse Riff               (x12)
G:---------------|-------------------------------|------------------------|
D:---------------|*-----------------------------*|---Chorus-Riff----------|
A:---------------|*--/7-----7--5----------------*|--play-as-shown-before--|
E:-(0)-----------|-------0--------3--0-r-0-0-----|--x3-+-diff-4th-ending--|
    ring________+   *dist. off                     *dist. on

[ Tab from: http://www.guitartabs.cc/tabs/r/rage_against_the_machine/wind_below_btab_ver_2.html ]
G:------------------|------------------------|
D:-Verse-Riff-(x8)--|---Chorus-Riff----------|
A:------------------|--play-as-shown-before--|
E:------------------|--x3-+-diff-4th-ending--|
   *dist. off          *dist. on


G:---------------------------------------------------------------------------|
D:---------------------------------------------------------------------------|
A:---------------------------------------------------------------------------|
E:--0-0-0-0-0--r--0-0-0-0-0-0-0-0-0--r--0-0-0-0--r--0-0-0-0-0-0-0-0-0-0-0-0--|


G:--------------------|--------------------|----------------------|
D:--Verse-Riff--(x8)--|---Verse-Riff-(x12)-|-Verse-Riff-(x10)-----|
A:---guitar-plays-----|--(quietly)-Zack----|-Zack-Speaks----------|
E:--------------------|-----speaks---------|-Gtr-quietly-reenters-|
    *dist. off

G:--------------------|---------------------------------|
D:--Verse-Riff-(x12)--|---------------------------------|
A:--*distortion-------|--/7---(7)------(gtr-feedback)---|
E:--------------------|---------------------------------|
/----------------------------------------\ 
|  ____    ____                          |
| (    `--'  .-'               _T_T_T_T_ |
| |8| O  O  |||||||||||||||||||[o o o o/ | 
| (__,--.____\                 `~~~`--'  |
|     from the desk of jaco pastorius..  |
|            acanterb@vt.edu             |
|  http://www.vt.edu:10021/A/acanterb/   |
\----------------------------------------/



Comments