Rage Against The Machine - War Within A Breath Chords & Tabs

 

War Within A Breath Chords & Tabs

Rage Against The Machine Chords & Tabs

Version: 2 Type: Bass Tab

War Within A Breath Bass Tab

   
Rage Against The Machine
WAR WITHIN A BREATH

tabbed by stevo

tuning:(C#,A,D,G)

verse:
[ Tab from: http://www.guitartabs.cc/tabs/r/rage_against_the_machine/war_within_a_breath_btab_ver_2.html ]
  G---------------
  D---------2-----
  A---2h4---4---
  C#----------------

chorus:

  G----------------------
  D----------------------
  A-----------2-4------
  C#---0-3-5-------3---