Rage Against The Machine - War Within A Breaht Chords & Tabs

 

War Within A Breaht Chords & Tabs

Rage Against The Machine Chords & Tabs

Version: 1 Type: Bass Tab 0 ratings
1 star 2 stars 3 stars 4 stars 5 stars
comments

War Within A Breaht Bass Tab

This is quite basic.  Sounds better with wammy pedal, or wah wah.

love it man, it sounds good!
[ Tab from: http://www.guitartabs.cc/tabs/r/rage_against_the_machine/war_within_a_breaht_btab.html ]
Verse
G|---------|---------|---------|---------|
D|----2----|----2----|----2----|----2----|
A|--4---4--|--4---4--|--4---4--|--4---4b-|
D|---------|---------|---------|---------|


Chorus
G|------------------|------------------|------------------|
D|------------------|------------------|------------------|
A|-----------3-5----|-----------3-5----|-----------3-5----|
D|--0--3--5------3--|--0--3--5-----3---|--0--3--5-------3-|
Comments