Rage Against The Machine - Wake Up Chords & Tabs

 

Wake Up Chords & Tabs

Rage Against The Machine Chords & Tabs

Version: 9 Type: Tab 0 ratings
1 star 2 stars 3 stars 4 stars 5 stars
comments

Wake Up Tab

intro

e-------------------------------------------------------------------|
b-------------------------------------------------------------------|
g131313-131313131313-131313------141414-141414141414-141414---------|
d-x-x-x--x-x-x-x-x-x--x-x-x-------x-x-x--x-x-x-x-x-x--x-x-x---------|
a111111-111111111111-111111------121212-121212121212-121212---------|
d-0-0-0--0-0-0-0-0-0--0-0-0-------0-0-0--0-0-0-0-0-0--0-0-0---------|

then

e----------0-------------------------------------------|
b----------0------------15b-15b-15b-15b-15b-15b-15b----|
g----------0------------18b-18b-18b-18b-18b-18b-18b----|
d--0-------0------0------------------------------------|
a--0-------0------0------------------------------------|
d--0-------0------0------------------------------------|

chorus

e-------------------------------------------|
b-------------------------------------------|
g-------------------------------------------|
d-------------------------------------------|   x3
a-------3---2h3--0-3-5-3-2------------------|
d-0-0-0---0------0-3-5-3-2------------------|

e------------------------------------------|
b------------------------------------------|
g------------------------------------------|
d------------------------------------------|
a------------------------------------------|
d-0-0-0-10-0-12h14-0-14h15-0-15h17---------|
[ Tab from: http://www.guitartabs.cc/tabs/r/rage_against_the_machine/wake_up_tab_ver_9.html ]
e--------------------------|
b--------------------------|
g--------------15----------|
d---------------x----------|
a--------------12----------|
d-0-0-0-10--0--------------|

verse

e------------------------------------|
b------------------------------------|
g------------------------------------|
d-------3-----5----------------------|
a-3-5-x---5-x---3-3-4----------------|
d------------------------------------|

solo

e------------------------------------------------------------------------|
b---------------5-5-5-6-6-6-8-8-8-6-6-6-5-----------------5-5-5-6-6-6----|
g-7-7-7-7-7-7-7---------------------------5-----5-5-5-5-5-------------7--|
d------------------------------------------------------------------------|
a------------------------------------------------------------------------|
d------------------------------------------------------------------------|

then

e---------------------------------------------|
b---------------------------------------------|
g---------------------------------------------|
d-5-5-5-5-5-5-5--3---5-5-5-5-5-5-5--0---------|
a-5-5-5-5-5-5-5--3---5-5-5-5-5-5-5--0---------|
d-5-5-5-5-5-5-5--3---5-5-5-5-5-5-5--0---------|

pm|-------------------------|
e-----------------------------|
b-----------------------------|
g-0-0-0---0-0-0-0-0-0---0-0-0-|
d-0-0-0---0-0-0-0-0-0---0-0-0-|
a-0-0-0---0-0-0-0-0-0---0-0-0-|
d-----------------------------|

intro
chorus
verse
chorus
verse
solo
intro
chorus
Comments