Rage Against The Machine - Wake Up Chords & Tabs

 

Wake Up Chords & Tabs

Rage Against The Machine Chords & Tabs

Version: 7 Type: Tab 0 ratings
1 star 2 stars 3 stars 4 stars 5 stars
comments

Wake Up Tab

Rage against the machine - Wake up
 tabbed by michael mccullagh


well i couldnt find a decent tab of this song anywhere...so i decided to have a go
myself. sounds pretty good to me 


E|-----------------------------|
B|-----------------------------|
G|-777777--77777777--77777-----|  <<<<< you get the point
D|-777777--77777777--77777-----|
A|-555555--55555555--55555-----|
D|-----------------------------|

          let ring
E|------------------------------|
B|------------------------------|
G|------------------------------|
D|-0~~~------/19-(x7 approx)----|
A|-0~~~-------------------------|
D|-0~~~-------------------------|

                                           Fill
E|------------------------------||-----------------------------|
B|------------------------------||-----------------------------|
G|------------------------------||-----------------------------|
D|------------------------------||-----------------------------|
A|--3--3-2-2h3------------------||--3-3-2-2h3-3-3h5-5h7/10-----|
D|-0--0-------3-3h5-2h3p2-------||-0-0-------------------------|

[ Tab from: http://www.guitartabs.cc/tabs/r/rage_against_the_machine/wake_up_tab_ver_7.html ]
E|---------------------|-------------------------------|
B|---------------------|-------------------------------|
G|-7-7-7-7-7-7-7-7~~~--|-------------------------------|
D|---------------------|------3-----5------------------|>only do this
A|---------------------|-3H5XX--5XX---3-3/4--(*3H5//)--|where u 
D|---------------------|-------------------------------|hear it



             fILL 1                  aNOTHER FILL       |NOT SURE HOW MANY TIMES    
E|----------------------------||-----------------------|
B|----------------------------||-----------------------|
G|-10-10-10-10-10-10-10///----||-----------------------|
D|-10-10-10-10-10-10-10///----||-----3-3H5-5H6-3H5-----|
A|-8--8--8--8--8--8--8////----||-3H5---------------3---|
D|----------------------------||-----------------------|


E|-------------------------------------------------------------------
B|--------------5555-6666-88888-66666-55555--------5555-6666--------|
G|-//7777777777-----------------------------555555-----------777777-|
D|------------------------------------------------------------------|
A|------------------------------------------------------------------|
D|------------------------------------------------------------------|


E|--------------------|----------------------------------------------
B|--------------------|----------------------------------------------
G|--------------------|----------------------------------------------
D|-05050350--05050353-|-0505035-0505035------------------------------
A|-05050350--05050353-|-0505035-0505035------------------------------
D|-05050350--05050353-|-0505035-0505035------------------------------
   *******   *******  | KEEP PLAYIN THIS BIT MUTED AND START TO UNMUTE IT 


      Well i think this sounds pretty good ...if u wana dis it ...just say so
Comments