Rage Against The Machine - Wake Up Chords & Tabs

 

Wake Up Chords & Tabs

Rage Against The Machine Chords & Tabs

Version: 5 Type: Tab 0 ratings
1 star 2 stars 3 stars 4 stars 5 stars
comments

Wake Up Tab

   
‘DROPPED D’ TUNING   DADGBE

INTRO
E:---------|
B:---------|      STRUM THIS TO RHYTHM
G:--2-----|
D:--0-----|
A:--5-----|
D:--0-----|


1ST BRIDGE
STRUM ONCE - LONG WAIT-SLIDE THESE NOTES
E:------------------------7/12-12-7/12-12-7/12-12--|
B:------------------------7/12-12-7/12-12-7/12-12--|
G:------------------------------------------------------|
D:------------------------------------------------------|
A:----0------------------------------------------------|
D:----0------------------------------------------------|

RIFF 1                                                                             4TH TIME
E:----------------------------------|                |-------------------------------|
B:----------------------------------|                |-------------------------------|
G:---------------------------------|  X3           |-------------------------------|
D:---------------------------------|                 |--------------------2H3--3H5-|
A:--------3---2-3-----3-5-0-3-2-|                  |---------3---3H5-------------|
D:-0-0-0---0------0—3-5-0-3-2-|                  |--0-0-0---0------------------|

2ND BRIDGE
PICK TO RHYTHM
E:-----------------------------------------------|
B:-----------------------------------------------|
G:----------------------------------------------|
D:--12-12-12-12-12-12-12-12-12-12-12-12-|
A:----------------------------------------------|
D:----------------------------------------------|

VERSE
                                                                                   FILL 1                          
E:---------------------------|                   |-----|
B:---------------------------|                   |-----|
G:--------------------------|  REPEAT          |-10--|REPEAT
D:----------3----5----------|                   |--10-|
A:---3-5-----5----3----3-4-|                   |--8--|
D:---------------------------|                  |------|
[ Tab from: http://www.guitartabs.cc/tabs/r/rage_against_the_machine/wake_up_tab_ver_5.html ]
FILL 2 (X 3)                                                                    FILL 3
|--------------------|                    |---------------------------------------|
|--------------------|                    |---------------------------------------|
|--------------------|                    |---------------------------------------|
|--------------------|                    |------------3-3-5---5-5-7---3-3-5---|
|--------------------|                    |------3-5--------------------------3--|
|----12H15P12H15-|                     |---------------------------------------|

FILL 4                                                            FILL 5
|----------------|                  |----------------------|
|----------------|                  |----------------------|
|--------17-19--|                       |------3----3----3---|
|----------------|                       |------ --5----5---5--|
|-15-17---------|                      |----------------------|
|-
COOL SOLO
SOUNDS GOOD WITH A TREMOLO EFFECT
E:-------------------------------------------|
B:------------5-6--8--6-5--------5-6------|
G:----7--------------------5---5------7----|   X2
D:------------------------------------------|
A:------------------------------------------|
D:------------------------------------------|


4TH BRIDGE

E:---------------------------------------------
B:---------------------------------------------
G:---------------------------------------------
D:----5-5-5-5-3-3-5—0----5-5-5-5-3-3-5--3
A:----5-5-5-5-3-3-5—0----5-5-5-5-3-3-5--3
D:----5-5-5-5-3-3-5—0----5-5-5-5-3-3-5—3
             PM>>>>>>>>|           PM>>>>>>>>|

CONTINUES STAGERING TO A RHYTHM
-----------------------------------------|
-----------------------------------------|
-----------------------------------------|
-5-5-5-5-3-3-5--------5-5-5-5-3-3-5-|
-5-5-5-5-3-3-5--------5-5-5-5-3-3-5-|
-5-5-5-5-3-3-5--------5-5-5-5-3-3-5-|
PM>>>>>>>>>>>>>>>>>>>>>>>>>>

BIT BEFORE RE DOING INTRO
E:-------------|
B:-------------|
G:------------|
D:-0-0-0-0-0-|      REPEAT TO RHYTHM
A:-0-0-0-0-0-|
D:-0-0-0-0-0-|
PM>>>>>>>>|

5TH BRIDGE
E:---------7/12-12-7/12-12—12-12-12BD----|
B:---------7/12-12-7/12-12—12-12-12BD----|
G:---------------------------------------------|
D:---------------------------------------------|
A:---------------------------------------------|
D:---------------------------------------------|

THEN,
E:------------------|
B:------------------|
G:-------------0---|
D:-------------2---|
A:-------------3---|
D:--0----------0---|

MAD SOLO
WIGGLE BACK AND FOURTH ON HIGHER STRINGS

OUTRO
E:----------------|
B:----------------|
G:----7----------|
D:-------------0-|
A:----5--------0-|
D:-------------0-|


LAYOUT
INTRO, 1ST BRIDGE, RIFF 1, 2ND BRIDGE, VERSE, FILL 1, VERSE, 
RIFF 1, FILL 4, VERSE, FILL 3,VERSE, FILL 5, VERSE, COOL SOLO, 
4TH BRIDGE, BIT BEFORE INTRO, INTRO, 5TH BRIDGE, THEN, 1ST BRIDGE, 
RIFF 1, MAD SOLO, OUTRO.

Comments