Rage Against The Machine - Wake Up Chords & Tabs

 

Wake Up Chords & Tabs

Rage Against The Machine Chords & Tabs

Version: 2 Type: Tab 0 ratings
1 star 2 stars 3 stars 4 stars 5 stars
comments

Wake Up Tab

   
Rage Against the Machine
Wake Up

Album: Rage Against The Machine
Tablature: Guitar
Source: http://www.geocities.com/ghoztratm
Transcribed By: Marcel 

--------------------------------------------------------------------------------

DROP D TUNING

INTRO
Volume Swell the Low D Up with volume Then....
Strum treble the opening G String.
With the other free Hand,
Tune Up and down(on the neck that same String
While You are trebling it. You Should Get the same sound that
he gets. The bass does the pause section. Finnish with OO on low strings


e:--------------------------------|
B:--------------------------------|
G:------(0)-----------------------|
D:--------------------------------|
A:--------------------------------|
E:-0swell-------------------------|



Intro2

e:----0----0----10----10---10----10----------|
B:----3---3--------13---------13----13-------|
G:----0--0---------------12---------12-------|
D:----0-0------------------------------------|
A:-------------------------------------------|
E:-0---------0-------------------------------|

RIFF 1				FILL (play this in place of section F)
		F	  F
e:--------------------------|   |-------------|
B:--------------------------|   |-------------|
G:--------------------------|   |-------------|
D:--------------------------|   |-----2-3 3-5-|  
A:------3---2-3---3-5-0-3-2-|   |-3-5---------|
E:0-0-0---0-----0-3-5-0-3-2-|   |-------------|
	        F         F


BRIDGE 2

D:-12-12-12-12-12-12-12-12-12-12-|



RIFF 2			FILL 			FILL 2 (x 3)
			
e:-----------------|	|-----------------|	|-------------|
B:-----------------|	|-----------------|	|-------------|
G:-----------------|	|-----------------|	|-------------|
D:-----3---5-------|	|-12-12-12-12-12--|	|-------------|
A:-3-5---5---3-3-4-|	|-12-12-12-12-12--|	|-12h15p12h15-|
E:-----------------|	|-----------------|	|-------------|


BRIDGE 3

e:-------------|
B:-------------|
G:-------17-19-|
D:-------------|
A:-15-17-------|
E:-------------|

[ Tab from: http://www.guitartabs.cc/tabs/r/rage_against_the_machine/wake_up_tab_ver_2.html ]
SOLO x2
Wah plus toggle switch
e:-------------------------------------|
B:---------5-6---8---6-5--------5-6----|
G:-7-7-7-7----------------5-5--------7-|
D:-------------------------------------|
A:-------------------------------------|
E:-------------------------------------|


BRIDGE 4			(continues staggering to a rhythm)

e:-----------------------------------------------------------------|
B:-----------------------------------------------------------------|
G:-----------------------------------------------------------------|
D:-XXXXX0-XXXXX3-XXXXX0-XXXXX3---XXXXXXXXXXXXXXXXXXXXXXXXXXXXXXXXX-|
A:-XXXXX0-XXXXX3-XXXXX0-XXXXX3---XXXXXXXXXXXXXXXXXXXXXXXXXXXXXXXXX-|
E:-XXXXX0-XXXXX3-XXXXX0-XXXXX3---XXXXXXXXXXXXXXXXXXXXXXXXXXXXXXXXX-|

|--------------------------------------------------------|
|----------------------------------------------------XXX-|
|----------------------------------------------------XXX-|
|----------------------------------------------------XXX-|
|----------------------------------------------------XXX-|
|-0-3-5-0-3-5-0-3-5-0-3-5--X-X-X-X-X-X-X-X-----------XXX-|
(not exactly numbered)

SOLO 2
Pause = P / play 5 times in groups like intro
e:---------------------------------------|
B:---------------------------------------|
G:-2-5xp---2-5xp--2-5x-3-5xp--3-5xp-3-5x-|
D:-0-------0------0----0------0-----0----|
A:---------------------------------------|
E:---------------------------------------|

e:---------------------------------------|
B:---------------------------------------|
G:-5-5xp---5-5xp--3-5x-3-5xp--3-5xp-2-5x-|
D:-0-------0------0----0------0-----0----|
A:---------------------------------------|
E:---------------------------------------|

THEN:
e:-------10----10-----10-----10--------|
B:-----------13-----------13----13-----|
G:------------------12----------12-----|
D:-------------------------------------|
A:-------------------------------------|
E:-0-----------------------------------|


BRIDGE 5
    x6	      x1
e:-------------|---|
B:-----3-----3-|---|
G:-----0----0--|---|
D:-----2---2---|---|
A:-0---3--3----|-0-|
E:-0---0-0-----|-0-|

BRIDGE 6
e:--------------------------------|
B:--------------------------------|
G:--------------------------------|
D:--------------------------------|
A:---3/5hv------------------------|
E:-0--------0-7-9---0-5-3---------|

OUTRO

kind wiggle back and forth on fret
WAH
G:-17-|

Comments