Rage Against The Machine - Voice Of The Voicless Chords & Tabs

 

Voice Of The Voicless Chords & Tabs

Rage Against The Machine Chords & Tabs

Version: 1 Type: Tab 0 ratings
1 star 2 stars 3 stars 4 stars 5 stars
comments

Voice Of The Voicless Tab

Rage Against the Machine 
Voice of the Voiceless
->FULL TAB<-

Tabbed by Mark Rice


intro
E----------------------------------------------|
B--13-15-18-17/15----13-15--17h18/15h17---17---|
G--0-------------------------------------------|
D----------------------------------------------|
A----------------------------------------------|
D----------------------------------------------|


E----------------------------------------------|
B--13-18-17-15-15/3---13-18-17-15--------------|
G----------------------------------------------|
D----------------------------------------------|
A----------------------------------------------|
D----------------------------------------------|


E-------------------------------------------------|
B-13-12-12h13-13/15-17--15/13--12-13--13h15-13/12-|
G-------------------------------------------------|
D-------------------------------------------------|
A-------------------------------------------------|
D-------------------------------------------------|

chorus


E--------------------------------|-------------------------------|
B--------------------------------|-------------------------------|
G--------------------------------|-------------------------------|
D----3----------------3-------5p3|-------------------------------|
A-3h5-5-3-5--3h5--3h5----5-3-5---|-5-3-5-3-0-3-------------------|
D--------------------------------|------------5-3-5-3-0-3-0------|


verse 1
Through steel walls
E-------------------------------------------------|
B-15--17-18--17-15-17--15--13--15-----------------|
G-------------------------------------------------|
D-------------------------------------------------|
A-------------------------------------------------|
D-------------------------------------------------|

E---------------------------------------------------------------------|
B-18-17/15-13--13/15--17h18-17/15-13--15/13-12--13-15-17/15-13-12-----|
G---------------------------------------------------------------------|
D---------------------------------------------------------------------|
A---------------------------------------------------------------------|
D---------------------------------------------------------------------|

At fifteen exposed Philly's finest killing machine
E--------------------------------------------------------------------------|
B-15h17h15/3--13/15h17h18-17-15h17-15--13-15-17-18--17h18h20-18/17/15------|
G--------------------------------------------------------------------------|
D--------------------------------------------------------------------------|
A--------------------------------------------------------------------------|
D--------------------------------------------------------------------------|

Cause and effect Smell tha smoke and tha breeze
E--------------------------------------------------------------------------|
B-15-17--15-13-12-13-15-18h17h15--13/15-18h17h15-15/3-15/17/18-------------|
G-0------------------------------------------------------------------------|
D--------------------------------------------------------------------------|
A--------------------------------------------------------------------------|
D--------------------------------------------------------------------------|

chorus
[ Tab from: http://www.guitartabs.cc/tabs/r/rage_against_the_machine/voice_of_the_voicless_tab.html ]
verse 2
E--------------------------------------------------------------------------|
B-17--18-17--18-17-18-18-17--13-15-17-13-12-13-13/15/16-17/15/13/12--------|
G--------------------------------------------------------------------------|
D--------------------------------------------------------------------------|
A--------------------------------------------------------------------------|
D--------------------------------------------------------------------------|

E--------------------------------------------------------------------------|
B-18----18/6--18h17h15--13--12-13-13h15-13-12-13h15-17-12------------------|
G--------------------------------------------------------------------------|
D--------------------------------------------------------------------------|
A--------------------------------------------------------------------------|
D--------------------------------------------------------------------------|

E--------------------------------------------------------------------------|
B-17h15h13--13/18/13/5h17h18--17h15h13--13/18--18/15-----------------------|
G--------------------------------------------------------------------------|
D--------------------------------------------------------------------------|
A--------------------------------------------------------------------------|
D--------------------------------------------------------------------------|

Chorus

Outro
E--------------------------------------------------------------------------|
B-15-17-18-17h15-13-15-17-15-----------------------------------------------|
G--------------------------------------------------------------------------|
D--------------------------------------------------------------------------|
A--------------------------------------------------------------------------|
D--------------------------------------------------------------------------|


E--------------------------------------------------------------------------|
B-15h17p15-15h17p15-15h17h18-18p17p15/13 13/15h17h18-18p17p15/13-13/12-----|
G--------------------------------------------------------------------------|
D--------------------------------------------------------------------------|
A--------------------------------------------------------------------------|
D--------------------------------------------------------------------------|

E--------------------------------------------------------------------------|
B-17-15h17h18-18p17p15/13--15h17h18--18p17p15/13---------------------------|
G--------------------------------------------------------------------------|
D--------------------------------------------------------------------------|
A--------------------------------------------------------------------------|
D--------------------------------------------------------------------------|

E--------------------------------------------------------------------------|
B-12h13h15/13/12-21--12h13h15/13/12-21-12h13h15-15p13p12-12h13h15----------|
G--------------------------------------------------------------------------|
D--------------------------------------------------------------------------|
A--------------------------------------------------------------------------|
D--------------------------------------------------------------------------|


Well, thats that... really fun to play
Comments