Rage Against The Machine - Voice Of The Voiceless Chords & Tabs

 

Voice Of The Voiceless Chords & Tabs

Rage Against The Machine Chords & Tabs

Version: 1 Type: Tab 0 ratings
1 star 2 stars 3 stars 4 stars 5 stars
comments

Voice Of The Voiceless Tab

   
Dropped D Tuning - D A D G B E

                            Rage Against the  Machine
                             Voice of the Voiceless

  Intro/Verse

In the intro and the verses you get feedback from the open G string and 
manipulate it by turning the knob of the whammy pedal to change the pitch.
[ Tab from: http://www.guitartabs.cc/tabs/r/rage_against_the_machine/voice_of_the_voiceless_tab.html ]
  Chorus                                    
|-------------------|------------------|
|-------------------|------------------|
|-------------------|------------------|
|------3------------|----3-------5p3---|
|--3h5---3h5-5-3h5-5|3h5---3h5-3-----5-|
|-------------------|------------------|
End of Chorus and Intro
|------------------------------|
|------------------------------|
|------------------------------|
|------------------------------|
|-5-3-5--3-0-3-----------------|
|--------------5-3-5--3-0-3--5-|
                        
             

    *********************************************************
    *            D E S K T O P   G U I T A R I S T          *
    *                                                       *
    *      U N R E G I S T E R E D   S H A R E W A R E      *
    *********************************************************
Comments