Rage Against The Machine - Voice Of The Voiceless Chords & Tabs

 

Voice Of The Voiceless Chords & Tabs

Rage Against The Machine Chords & Tabs

Version: 3 Type: Bass Tab 0 ratings
1 star 2 stars 3 stars 4 stars 5 stars
comments

Voice Of The Voiceless Bass Tab

Tabbed By Ozzie Rea

Intro (1)
|-----------------------------|
|-----------------------------|
|5-3-5---3-0-3----------------|
|----------------5-3-5---3-0-3|

Pre Verse (3)
|-------------------------------------|
|----3-------------------3-------5-3--|
|3-5---5-3-5-3-5-5---3-5---5-3-5-----5|
|-------------------------------------|
“UGH”. . .

Pre Verse (1)
|-------------------------------------------------|
|----3--------------------------------------------|
|3-5---5-3-5-3-5-5---5-3-5---3-0-3----------------|
|------------------------------------5-3-5---3-0-3|
“C’mon, check it”. . .

Verse (8)
|---------------|
|---------------|
|---------------|
|3-5---0h2---0h3|
“Through steel walls”. . .
[ Tab from: http://www.guitartabs.cc/tabs/r/rage_against_the_machine/voice_of_the_voiceless_btab_ver_3.html ]
Chorus (2)
|-------------------------------------|
|----3-------------------3-------5-3--|
|3-5---5-3-5-3-5-5---3-5---5-3-5-----5|
|-------------------------------------|
“You’ll never silence tha voice of tha voiceless”. . .

Verse (8)
|---------------|
|---------------|
|---------------|
|3-5---0h2---0h3|
“You see tha power get nervous”. . .

Chorus (4)
|-------------------------------------|
|----3-------------------3-------5-3--|
|3-5---5-3-5-3-5-5---3-5---5-3-5-----5|
|-------------------------------------|
“You’ll never silence tha voice of tha voiceless”. . .

Outro (1)
|--------------------------------------------------|
|--------------------------------------------------|
|--------------------------------------------------|
|--------------------------------------------------|
“And Orwell’s hell a terror era coming through”. . .

RATM very well could be the best band in existence. . .
Good luck on your playing bass guitar situation.
Comments